Beach Boys - Wipe Out Chords & Tabs

 

Wipe Out Chords & Tabs

Beach Boys Chords & Tabs

Version: 3 Type: Tab 0 ratings
1 star 2 stars 3 stars 4 stars 5 stars
comments

Wipe Out Tab

|-------------------------------------------------------
|-------------------------------------------------------
|-------------------------------------------------------
|--------------------1-2-3-3-3-1------------------------
|-1-2-3-3-3-1--------------------3-3-X4-----------------
|------------3-3-X4-------------------------------------
[ Tab from: http://www.guitartabs.cc/tabs/b/beach_boys/wipe_out_tab_ver_3.html ]
Then it goes:
|-------------------------------------------------------
|-------------------------------------------------------
|-------------------------------------------------------
|-3-4-5-3---5-3-3-3-1-----------------------------------
|---------5-----------3--1-2-3-3-3---3-3-3--------------
|----------------------------------3--------------------

Then there's a bunch of chords over a cool drumb beat
but i havn't worked them out yet
Comments