Beach Boys - Wipe Out Chords & Tabs

 

Wipe Out Chords & Tabs

Beach Boys Chords & Tabs

Version: 1 Type: Bass Tab 0 ratings
1 star 2 stars 3 stars 4 stars 5 stars
comments

Wipe Out Bass Tab

    			WIPEOUT--BEACH BOYS
G------------------------------------------------------------------+
D------0-1-2-2-2-0-----0-1-2-2-2-0---0-1-2-2-2-0-----0-1-2-2-2-0---+
A----2-------------2-2-------------2-------------2-2---------------+
E------------------------------------------------------------------+
[ Tab from: http://www.guitartabs.cc/tabs/b/beach_boys/wipe_out_btab.html ]
G--------0-1-2-2-2-0-----0-1-2-2-2-0-----------------------------------+
D------2-------------2-2-------------2---0-1-2-2-2-0-----0-1-2-2-2-0---+
A----2---------------------------------2-------------2-2---------------+
E----------------------------------------------------------------------+

G--------2-3-4-4-4-2-----0-1-2-2-2-0-----------------------------+
D------4-------------4-2-------------2---0-1-2-------------------+repeat*
A----2---------------------------------2-------2-2-2-2-2-2-2-2---+
E----------------------------------------------------------------+
   This is basically it...You can jazz it up a little.

Song: Wipeout
Artist: Beach Boys
Tabbed By: P.C.
E-mail: akapaulzy@hotmail.com
Comments