Beach Boys - Wendy Chords & Tabs

 

Wendy Chords & Tabs

Beach Boys Chords & Tabs

Version: 1 Type: Tab 0 ratings
1 star 2 stars 3 stars 4 stars 5 stars
comments

Wendy Tab

here's just a little solo i figured out from an old beach boys tune entitled "wendy". It 
from their performance on the ed sullivan show back in '64.

Tabbed by: Scott
Email:knicks515@yahoo.com

Tuning:
[ Tab from: http://www.guitartabs.cc/tabs/b/beach_boys/wendy_tab.html ]
e|-----10--12-13-12-10-10----------10-12-13-12-10-10--12--10------------13--|
B|--10---------------------10--10-----------------------------13-13-13------|
G|--------------------------------------------------------------------------|
D|--------------------------------------------------------------------------|
A|--------------------------------------------------------------------------|
E|--------------------------------------------------------------------------|

e|-15-17-13-17-15-13-15-15-18-15-13-12------12-------12---------------------|
B|--------------------------------------13------13--------------------------|
G|--------------------------------------------------------------------------|
D|--------------------------------------------------------------------------|
A|--------------------------------------------------------------------------|
E|--------------------------------------------------------------------------|
Comments