Beach Boys - Surfin Usa Chords & Tabs

 

Surfin Usa Chords & Tabs

Beach Boys Chords & Tabs

Version: 1 Type: Tab 0 ratings
1 star 2 stars 3 stars 4 stars 5 stars
comments

Surfin Usa Tab

e---------------------
B---------------------
G---------------------
D--8-9-10-10-10-8-----
A-10------------10-10-
E---------------------
   4x
e---------------------
B---------------------
G--8-9-10-10-10-8-----
D-10------------10-10-
A---------------------
E---------------------
   2x
e---------------------
B---------------------
G---------------------
D--8-9-10-10-10-8-----
A-10------------10-10-
E---------------------
   2x
e---------------------
B---------------------
G--10-11-12-12-12-10--
D-12---------------12-
A---------------------
E---------------------

e--------------------
B--------------------
G--8-9-10-10-10-8----
D-10------------10---
A--------------------
E--------------------
[ Tab from: http://www.guitartabs.cc/tabs/b/beach_boys/surfin_usa_tab.html ]
e--------------------
B--------------------
G--------------------
D--8-9-10-10-10-8----
A-10------------10---
E--------------------

e--------------------
B--------------------
G--------------------
D-8------------------
A-10-----------------
E--------------------
   3x
e--------------------
B--------------------
G--------------------
D--------------------
A-10-----------------
E-8------------------
   12x
e--------------------
B--------------------
G--------------------
D-10-----------------
A-8------------------
E--------------------
   12x
e--------------------
B--------------------
G--------------------
D-12-----------------
A-10-----------------
E--------------------
   7x
e--------------------
B--------------------
G--------------------
D-10-----------------
A-8------------------
E--------------------
   7x
e--------------------
B--------------------
G--------------------
D--------------------
A-10-----------------
E-8------------------
   7x
Comments