Beach Boys - Surfin Chords & Tabs

 

Surfin Chords & Tabs

Beach Boys Chords & Tabs

Version: 2 Type: Bass Tab 0 ratings
1 star 2 stars 3 stars 4 stars 5 stars
comments

Surfin Bass Tab

   
The Beach Boys: Surfin
Tabbed By: Jordan Waters
Comments Questions:-->J_lumpy15@hotmail.com
Standard Tuning: E A D G


            SURFIN'

Intro.......

    D                         C
[---------------------------------------------------------------------]
[---------------------------------------------------------------------]
[---5--5--5--5--5--5--5--5---3--3--3--3--3--3------4------------------]
[---------------------------------------------------------------------]

   D		  C
[--------------------------------]
[--------------------------------]
[---5--rr-r-------3---rr-r-------]
[--------------------------------]


  Verse
    G
[---------------------------------------------------------------------]
[--------0--2--0--------0--2--0--------0--2--0--------0--2--0---------]
[-----2--------------2--------------2--------------2------------------]
[--3--------------3--------------3--------------3---------------------]
[ Tab from: http://www.guitartabs.cc/tabs/b/beach_boys/surfin_btab_ver_2.html ]
				       C
[----------------------------------------------------0--2--0----------]
[-------0--2--0--------0--2--0--------------------2-------------------]
[----2--------------2-----------3--------0-----3----------------------]
[-3--------------3-----------------0--3-----3-------------------------]


   D
[---------2--3--2-----------------------------------------------------]
[------3--------------------------------------------------------------]
[---5----------------5----5--5--3--2--0-------------------------------]
[---------------------------------------------------------------------]


Chorus
  G
[------------------]
[--------0--2--0---]  x4
[-----2------------]
[--3---------------]

  C
[-------0--2--0----]
[----2-------------]  x2
[-3----------------]
[------------------]

   G
[------------------]
[--------0--2--0---]  x2
[-----2------------]
[--3---------------]

This is another groovin' Surf song by the boys. Heres the 
Play order-->

Intro

Verse

Chorus

Intro

Verse

Chorus

Intro
Verse

Chorus 

Intro ( fade out) with
Comments