Beach Boys - Sloop John B Chords & Tabs

 

Sloop John B Chords & Tabs

Beach Boys Chords & Tabs

Version: 1 Type: Tab 1 rating
1 star 2 stars 3 stars 4 stars 5 stars
comments

Sloop John B Tab

sloop john b

tabbed by kt  (katy.early@ntlworld.com)     
[ Tab from: http://www.guitartabs.cc/tabs/b/beach_boys/sloop_john_b_tab.html ]
e|-------------------|------------------|---------------------|------------|
b|-------------------|------------------|----------0-0--------|------------|
g|----1-1---1-1--2-1-|----1--1-1--1-2-1-|--1--1-2------2-1----|------------|
d|-------------------|------------------|------------------4--|------1-2---|
a|--2----------------|--2---------------|---------------------|--2-4-------|
E|-------------------|------------------|---------------------|------------|


e|-------------------|------------------|---------------------|
b|-------------------|------------------|---------------------|
g|----------1-2------|--2---1-2-1-------|---------------------|
d|---2-2--4----------|----4-------2-----|--4-4-4-2-1-2--------|
a|-------------------|------------------|---------------------|
E|-------------------|------------------|---------------------|

its just the same all the way through
Comments