Beach Boys - Little Girl I Once Knew Chords & Tabs

 

Little Girl I Once Knew Chords & Tabs

Beach Boys Chords & Tabs

Version: 1 Type: Chords 0 ratings
1 star 2 stars 3 stars 4 stars 5 stars
comments

Little Girl I Once Knew Chords

   
#----------------------------------PLEASE NOTE--------------------------------#
#This file is the author's own work and represents their interpretation of the#
#song. You may only use this file for private study, scholarship, or research.#
#-----------------------------------------------------------------------------#
                     "The Little Girl I Once Knew"
                             (Brian Wilson)


TABBER: Andrew Rogers
Intro:

12-string:

      B/F#               C#
       v   v   v   v     v   v   v   v
      -----7---2-------|---1---2---4-----
      -----7---2-------|---2---4---6-----
      -----------------|-----------------
      -----------------|-----------------
      -----------------|-----------------
      -----------------|-----------------

      G#m7               E
       v   v   v   v     v   v   v   v
      -----7---2-------|---0---2---4-----
      -----7---4-------|---0---4---5-----
      -----------------|-----------------
      -----------------|-----------------
      -----------------|-----------------
      -----------------|-----------------

bass:

      B/F#               C#
 v     v   v   v   v     v   v   v   v
-----|-----------------|-----------------
-----|-----------------|-----------------
--(2)|---------------6-|-4-------------6-
-----|-2---------------|-----------------

      G#m7               E
       v   v   v   v     v   v   v   v
      -----------------|-----------------
      -----------------|-----------------
      ---------------2-|---------------2-
      -4---------------|-0---------------

organ (eighth-note triplets) [2nd time]:
[ Tab from: http://www.guitartabs.cc/tabs/b/beach_boys/little_girl_i_once_knew_crd.html ]
      B/F#                 C#
       v     v   v   v     v     v   v   v
      -14----------------|-13----------------
      ---16--------------|---14--------------
      -----16--%---%---%-|-----13--%---%---%-
      -------------------|-------------------
      -------------------|-------------------
      -------------------|-------------------

      G#m7                 E
       v     v   v   v     v     v   v   v
      -14----------------|-16----------------
      ---16--------------|---17--------------
      -----16--%---%---%-|-----16--%---%---%-
      -------------------|-------------------
      -------------------|-------------------
      -------------------|-------------------

bass:

(C#)              (F#)
 v   v   v   v     v v v v   v v v v
-----------------|---------|---------
-----------------|-4-------|---------
-4-----4-------4-|---------|---------
------------646--|---------|---------
             ^^^ triplet


bass:

(C#)              (F#)
 v   v   v   v     v   v   v   v     v v v v   v v v v
-----------------|-----------------|---------|---------
-----------------|-----------------|-4-------|---------
-4-----4---------|-6---4---------46|---------|---------
-----------------|---------4-6-----|---------|---------

[spoken] Split, man

[repeat chorus]

Break:

organ (eighth-note triplets):

 B                             E
 v     v   v   v     v v v v   v     v   v   v     v v v v
-14----------------|---------|-16----------------|---------
---16--------------|---------|---17--------------|---------
-----16--%---%---%-|-%-%-%-%-|-----16--%---%---%-|-%-%-%-%-
-------------------|---------|-------------------|---------
-------------------|---------|-------------------|---------
-------------------|---------|-------------------|---------

bass (doubled w/saxes):

B/F#
 v   v   v   v     v   v   v   v
-----------------|-------4---------
-----4-----4-6-4-|---4-6-----4-6---
-----------------|-----------------
-----------------|-----------------




-- another ace 60's tab from Andrew Rogers
Comments