Beach Boys - I Get Around Chords & Tabs

 

I Get Around Chords & Tabs

Beach Boys Chords & Tabs

Version: 1 Type: Bass Tab

I Get Around Bass Tab

   
-----------------------------------------------------------------------------
			     I Get Around - Beach Boys
-----------------------------------------------------------------------------

Tabbed By : Glam_Rocker
e-mail: NicolaiJLarsen@hotmail.com
I played this song to a koncert at my school, this is what i played:

Tuning: E, A, D, G.

Intro
(You can choose to play this)
G|---------------------------------------------------------------------------|
D|---------------------------------------------------------------------------|
A|-------------------------------5-------------------------------------------|
E|3------0-------5-------1---------------------------------------------------|

Chorus 1
Play the samme as the intro, but play each tone 16 times!
G|---------------------------------------------------------------------------|
D|---------------------------------------------------------------------------|
A|--------------------------------0000000000000000--------55555555-----------|
E|33333333333333330000000000000000----------------11111111-------------------|

Verse 1
G|---------------------------------------------------------------------------|
D|---------------------------------------------------------------------------|
A|----4-5-------5-5-------4-5-----5-5----------------------------------------|
E|4-5-------4-5-------4-5-----4-5--------------------------------------------|

After this there comes a short guitar break where you play
G|---------------------------------------------------------------------------|
D|---------------------------------------------------------------------------|
A|--------------------------------------4-5-------5-5----4-5-------5-5-------|
E|333333333333-- And then you play---4-5-----4-5------4-5-----4-5------------|

Chorus 2
(The same as chorus 1)
[ Tab from: http://www.guitartabs.cc/tabs/b/beach_boys/i_get_around_btab.html ]
Bridge where you play
G|---------------------------------------------------------------------------|
D|---------------------------------------------------------------------------|
A|---------------------------------------------------------------------------|
E|0000000000000000-----------------------------------------------------------|

Solo
G|---------------------------------------------------------------------------|
D|---------------------------------------------------------------------------|
A|----------------5555555555555555-------------------------------------------|
E|5555555555555555----------------55555555555555550000000011111111-----------|

The hole song goes one half tone step up

Verse 2
G|----------------------------------------------------------------------------|
D|----------------------------------------------------------------------------|
A|----5-6------6-6----5-6------6-6--------------------------------------------|
E|5-6-----5-6-----5-6-----5-6-------------------------------------------------|

Again there is a short guitar break
G|---------------------------------------------------------------------------|
D|---------------------------------------------------------------------------|
A|----------------------5-6------6-6-----5-6------6-6------------------------|
E|4444444444444444--5-6-----5-6------5-6-----5-6-----------------------------|

Chorus 3
G|---------------------------------------------------------------------------|
D|---------------------------------------------------------------------------|
A|---------------------------------111111111111111--------66666666-----------|
E|4444444444444444-1111111111111111---------------22222222-------------------|

Bridge
G|---------------------------------------------------------------------------|
D|---------------------------------------------------------------------------|
A|----------------66666666------------------------------1-----------6--------|
E|1111111111111111----------intro again-4-------1---------------2------------|

Play this chorus until it fades out
G|---------------------------------------------------------------------------|
D|---------------------------------------------------------------------------|
A|---------------------------------111111111111111--------66666666-----------|
E|4444444444444444-1111111111111111---------------22222222-------------------|