Beach Boys - Dance Dance Dance Chords & Tabs

 

Dance Dance Dance Chords & Tabs

Beach Boys Chords & Tabs

Version: 1 Type: Bass Tab 0 ratings
1 star 2 stars 3 stars 4 stars 5 stars
comments

Dance Dance Dance Bass Tab

   
Artist: Beach Boys
Song: Dance Dance Dance
Music: Brian Wilson
Lyrics: Mike Love 
Transcribed by: Rick Byrum RickB2000@aol.com(All of it was done by Me)

You have to play it resonable fast just play with teh cd till you get it. But 
It is very fun once you get it

Intro and verse
G ---------------------------------------------------------
D -5-5-3-3-------------2-0-------2-1-0-----------2-0-------
A ---------5---1-2-3-3-------1-2---------1-2-3-3-----1-0---
E -----------3-------------------------3-----------------3-

Chorus 1:
         (G)
G --------------------------
D --------------------------
A --------------------------
E -3-3-3-3-3-3-3-3-3-3-3-3-3  
(Tip: don't just make the repititive note on the right hand let of the fret 
enough to mute it before hitting the fret again)

         (C)
G --------------------------
D --------------------------
A -3-3-3-3-3-3-3-3-3-3-3-3-3
E --------------------------
[ Tab from: http://www.guitartabs.cc/tabs/b/beach_boys/dance_dance_dance_btab.html ]
         (G)
G --------------------------
D --------------------------
A --------------------------
E -3-3-3-3-3-3-3-3-3-3-3-3-3

     (B)   (C)        (D)
G -------------------------------7*- (NOTE: * means to snap and pop it)
D ----------------------------------
A -2---2-------3---3-------5---5*----
E ----------------------------------

Chorus 2: (the last two times at the end)
         (G#)
G --------------------------
D --------------------------
A --------------------------
E -4-4-4-4-4-4-4-4-4-4-4-4-4

         (C#)
G --------------------------
D --------------------------
A -4-4-4-4-4-4-4-4-4-4-4-4-4
E --------------------------

         (G#)
G --------------------------
D --------------------------
A --------------------------
E -4-4-4-4-4-4-4-4-4-4-4-4-4

     (C)   (C#)        (D#)
G -------------------------------8*-
D ----------------------------------
A -3---3-------4---4-------6---6----
E ----------------------------------

For more Groovy 60's Bass Lines E-mail RickB2000@netzero.com

Comments