Beach Boys - California Girls Chords & Tabs

 

Beach Boys Chords & Tabs

Version: 5 Type: Bass Tab 0 ratings
1 star 2 stars 3 stars 4 stars 5 stars
comments

California Girls Bass Tab

   
-------------------------------------------------------------------------------
			     CALIFORNIA GIRLS - The Beach Boys
-------------------------------------------------------------------------------
#----------------------------------PLEASE NOTE---------------------------------#
#This file is the author's own work and represents their interpretation of the #
#song. You may only use this file for private study, scholarship, or research. #
#------------------------------------------------------------------------------#

Tabbed By : Steve Kunk
e-mail: Gravitykils121@aim.com

Tuning: Standard
	Bass comes in at 0:05
G|------------------|------------------|------------------|
D|---6--------------|---6--------------|---6--------------|
A|-------9---7-6----|-------9---7-6----|-------9---7-6----|
E|-7---7---7-----7-9|-7---7---7-----7-9|-7---7---7-----7-9|

G|---------------------|--------|--------|--------|--------|--------|--------|
D|---------------------|-----6--|-----6--|-----6--|-----6--|-----6--|-----6--|
A|-0-9-0-7-0-------0---|---9---9|---9---9|---9---9|---9---9|---9---9|---9---9|
E|-----------10-9-----9|-7------|-7------|-7------|-7------|-7------|-7------|

G|--------|--------|--------|--------|--------|--------|--------|--------|
D|-----6--|-----6--|-----6--|-----6--|-----6--|-----6--|--------|--------|
A|---9---9|---9---9|---9---9|---9---9|---9---9|---9---9|---2-4-2|---2-4-2|
E|-7------|-7------|-7------|-7------|-7------|-7------|-0------|-0------|

G|--------|--------|--------|--------|--------|--------|--------|--------|
D|--------|--------|-----1--|-----1--|-----1--|-----1--|-----6--|-----6--|
A|---2-4-2|---2-4-2|---4---4|---4---4|---4---4|---4---4|---9---9|---9---9|
E|-0------|-0------|-2------|-2------|-2------|-2------|-7------|-7------|

G|--------|--------|--------|--------|--------|--------|--------|--------|
D|-----6--|-----6--|-----6--|-----6--|-----6--|-----6--|-----6--|-----6--|
A|---9---9|---9---9|---9---9|---9---9|---9---9|---9---9|---9---9|---9---9|
E|-7------|-7------|-7------|-7------|-7------|-7------|-7------|-7------|

G|--------|--------|--------|--------|--------|--------|--------|--------|
D|-----6--|-----6--|--------|--------|--------|--------|-----1--|-----1--|
A|---9---9|---9---9|---2-4-2|---2-4-2|---2-4-2|---2-4-2|---4---4|---4---4|
E|-7------|-7------|-0------|-0------|-0------|-0------|-2------|-2------|

G|--------|--------|--------|--------|--------|--------|--------|--------|
D|-----1--|-----1--|--------|--------|--------|--------|--------|--------|
A|---4---4|---4---4|--------|--------|--------|--------|--------|--------|
E|-2------|-2------|-2---2-2|-7-7-7-7|-9-9-9-9|-5-5-5-5|-7-7-7-7|-3-3-3-3|
[ Tab from: http://www.guitartabs.cc/tabs/b/beach_boys/california_girls_btab_ver_5.html ]
G|--------|--------|--------|--------|--------|--------|--------|--------|
D|--------|-----6--|-----6--|-----6--|-----6--|-----6--|-----6--|-----6--|
A|--------|---9---9|---9---9|---9---9|---9---9|---9---9|---9---9|---9---9|
E|-5-5-5-5|-7------|-7------|-7------|-7------|-7------|-7------|-7------|

G|--------|--------|--------|--------|--------|--------|--------|--------|
D|-----6--|-----6--|-----6--|-----6--|-----6--|--------|--------|--------|
A|---9---9|---9---9|---9---9|---9---9|---9---9|---2-4-2|---2-4-2|---2-4-2|
E|-7------|-7------|-7------|-7------|-7------|-0------|-0------|-0------|

G|--------|--------|--------|--------|--------|--------|--------|--------|
D|--------|-----1--|-----1--|-----1--|-----1--|-----6--|-----6--|-----6--|
A|---2-4-2|---4---4|---4---4|---4---4|---4---4|---9---9|---9---9|---9---9|
E|-0------|-2------|-2------|-2------|-2------|-7------|-7------|-7------|

G|--------|--------|--------|--------|--------|--------|--------|--------|
D|-----6--|-----6--|-----6--|-----6--|-----6--|--------|--------|--------|
A|---9---9|---9---9|---9---9|---9---9|---9---9|---2-4-2|---2-4-2|---2-4-2|
E|-7------|-7------|-7------|-7------|-7------|-0------|-0------|-0------|

G|--------|--------|--------|--------|--------|--------|--------|--------|
D|--------|-----1--|-----1--|--------|--------|--------|--------|--------|
A|---2-4-2|---4---4|---4---4|--------|--------|--------|--------|--------|
E|-0------|-2------|-2------|-2---2-2|-7-7-7-7|-9-9-9-9|-5-5-5-5|-7-7-7-7|

G|--------|--------|--------|--------|--------|--------|--------|--------|
D|--------|--------|-----6--|-----6--|-----6--|-----6--|--------|--------|
A|--------|--------|---9---9|---9---9|---9---9|---9---9|--------|--------|
E|-3-3-3-3|-5-5-5-5|-7------|-7------|-7------|-7------|--------|--------|

G|--6-----|--------|--------|--------|--------|--------|--------|--------|
D|------9-|6-------|----6---|----6---|----6---|----6---|-----6-6|-----6-6|
A|--------|--9-6---|--9---9-|--9---9-|--9---9-|--9---9-|-4-4----|-4-4----|
E|--------|------9-|7-------|7-------|7-------|7-------|--------|--------|

G|--6-----|--------|--------|--------|--------|--------|--------|--------|
D|------9-|6-------|----6---|----6---|----6---|----6---|-----6-6|-----6-6|
A|--------|--9-6---|--9---9-|--9---9-|--9---9-|--9---9-|-4-4----|-4-4----|
E|--------|------9-|7-------|7-------|7-------|7-------|--------|--------|

G|--6-----|--------|--------|--------|--------|--------|--------|--------|
D|------9-|6-------|----6---|----6---|----6---|----6---|-----6-6|-----6-6|
A|--------|--9-6---|--9---9-|--9---9-|--9---9-|--9---9-|-4-4----|-4-4----|
E|--------|------9-|7-------|7-------|7-------|7-------|--------|--------|

G|------------|
D|------------|
A|-4-2-----6--|
E|-----4-2---7|

| /  slide up
| \  slide down
| h  hammer-on
| p  pull-off
| ~  vibrato
| +  harmonic
| x  Mute note
===============================================================================
Comments