Beach Boys - Barbara Ann Chords & Tabs

 

Beach Boys Chords & Tabs

Version: 2 Type: Bass Tab 0 ratings
1 star 2 stars 3 stars 4 stars 5 stars
comments

Barbara Ann Bass Tab

Start playing after the 2nd "Ba Ba Baaa, Ba Barbara Ann..."

  q q q q q q q q q q q q q q q q q q q q q q q q h. e w    q q q q q q q q
G|-------|-------|------1|4-2-1--|-------|-------|----|----|-------|-------->
D|------1|4-2-1--|--1-4--|------4|------1|4-2-1--|----|----|------1|------1->
A|--1-4--|------4|2------|-------|--1-4--|------4|4--4|2---|--1-4--|--1-4--->
E|2------|-------|-------|-------|2------|-------|----|----|2------|2------->
 
 q      q      q q q q q q q q q q q q q q q q w    w    q q q q q q q q
|------|------|------1|------1|-------|-------|----|----|-------|-------->
|------|------|--1-4--|--1-4--|------1|------1|----|----|------1|4-2-1--->
|------|------|2------|2------|--1-4--|--1-4--|4---|2---|--1-4--|------4->
|2x----|2x----|-------|-------|2------|2------|----|----|2------|-------->

 q           q q q q q q q q q q q q q q q q q q q q q q q q q w    w   
|------|------|-------|-------|------1|4-2-1--|-------|-------|----|----->
|------|-----4|------1|4-2-1--|--1-4--|------4|------1|4-2-1--|----|----->
|------|------|--1-4--|------4|2------|-------|--1-4--|------4|4---|2---->
|2x----|------|2------|-------|-------|-------|2------|-------|----|----->
                                                            q q q q q q q q
                                                          <--------|-------|
                                                          <-------1|4-2-1--|
                                                          <---1-4--|------4|
                                                          <-2------|-------|
Instrumental break->
[ Tab from: http://www.guitartabs.cc/tabs/b/beach_boys/barbara_ann_btab_ver_2.html ]
 q q q q q q q q q q q q q q q q q q q q q q q q q q q q q q q q
|-------|-------|-------|-------|-------|------1|-------|-------->
|------1|4-2-1--|-------|-------|------4|--1-4--|--4-2--|-------->
|--1-4--|------4|------4|------1|2-4-2--|2------|------4|--1-2-4->
|2------|-------|2-4-2--|2-4-2--|-------|-------|2------|2------->

                                  q q q q q q q q q q q q q q q q q
                                <-------1|-------|-------|-------|-----|
                                <---3----|-------|------1|-------|-----|
                                <-4---4--|--1-2-4|--1-4--|4-2-1--|-----|
                                <--------|2------|2------|------4|2x---|

    q q q q q q q q q q q q q q q q q q    q    q q q q q q q q q
|----|------1|------1|-------|-------|----|----|-------|-------|-----|
|----|--1-4--|--1-4--|------1|4-2-1--|----|----|------1|------1|-----|
|----|2------|2------|--1-4--|------2|4x--|2x--|--1-4--|--1-4--|-----|
|---2|-------|-------|2------|-------|----|----|2------|2------|2x---|

 q q q q q q q q q q q q q q q q q q q q q q q q w    w    q q q q q q q q
|-------|-------|------1|-------|-------|-------|----|----|-------|-------->
|------1|------1|--1-4--|------4|-------|------1|----|----|------1|------1->
|--1-4--|--1-4--|2------|2-4-2--|------4|--1-4--|4---|2---|--1-4--|--1-4--->
|2------|2------|-------|-------|2-4-2--|2------|----|----|2------|2------->

   q q q q q q q q   q q q q q q q q q q q q q q q q w    w    q q q q
||*-------|-------*||------1|------1|-------|-------|----|----|-------->F O
||*------1|------1*||--1-4--|--1-4--|------1|------1|----|----|------1->A U
||*--1-4--|--1-4--*||2------|2------|--1-4--|--1-4--|4---|2---|--1-4--->D T
||*2------|2-----[x2]-------|-------|2------|2------|----|----|2------->E
                                                         (Or keep playing, 
                                                          depending on what
                                                          version you have.)



Tab by A. Romanski
Comments