Be Your Own Pet - Fire Department Chords & Tabs

 

Fire Department Chords & Tabs

Be Your Own Pet Chords & Tabs

Version: 1 Type: Tab

Fire Department Tab

Hey i got this off a mate of mine it sound good if you do it in bar chords so i will 
you the power chords and i am sure you could make it a bar chord:

E|-------------------------------------------|
G|-------------------------------------------|
B|-----------1-1------------------1-1--------|
D|-9-9-9-9---2-2--3-2---9-9-99-9--2-2--33-2--|And repeat really.
A|-9-9-9-9---2-2--3-2---9-9-99-9--2-2--33-2--|
E|-7-7-7-7---0-0--1-0---7-7-77-7--0-0--11-0--|
[ Tab from: http://www.guitartabs.cc/tabs/b/be_your_own_pet/fire_department_tab.html ]
And there is another bit when it goes

E|-----------------------------------------------------|
G|-----------------------------------------------------|
B|-----------------------------------------------------|
D|-----------------------------------------------------|
A|-2--2--0-1-2-2--0-1-2-2--0-1-2-2---------------------| then repeat really!
E|---------------------------------0-0--0-0--3-3--2-2--|


That is only bits of the song sorry! i cant get the whole song yet!