Be Bop Deluxe - Sister Seagull Chords & Tabs

 

Sister Seagull Chords & Tabs

Be Bop Deluxe Chords & Tabs

Version: 1 Type: Tab 0 ratings
1 star 2 stars 3 stars 4 stars 5 stars
comments

Sister Seagull Tab

Band Name: Be Bop Deluxe
Song Name: Sister Seagull
Tabbed By: Terry Sims (Masterofdarknes)
Email: Floyd_Fan@teenspot.com

Tuning: Normal

Main Riff!

|--------------------------------------------------------------------|
|--------------------------------------------------------------------|
|--------------------------------------------------------------------|
|--12--14--14--12--14\-----------------------------------------------|
|--12--14--14--12--14\-----------------------------------------------|
|--10--12--12--10--12\-----------------------------------------------|
[ Tab from: http://www.guitartabs.cc/tabs/b/be_bop_deluxe/sister_seagull_tab.html ]
|--15----12-15-12----------------------------------------------------|
|----------------15--12-15-12----------------------------------------|
|----------------------------14--12-14-12----------------------------|
|----------------------------------------14--12-14-12----------------|
|----------------------------------------------------14--------------|
|--------------------------------------------------------------------|

|------------15--12-15-12--------------------------------------------|
|------------------------15--12-15-12--------------------------------|
|------------------------------------14--12-14-12--------------------|
|--12--14----------------------------------------14--12-14-12--------|
|------------------------------------------------------------14------|
|--------------------------------------------------------------------|

|--------------------------------------------------------------------|
|--------------------------------------------------------------------|
|--14(16)----(14)16----(14)16----(14)16------------------------------|
|--------------------------------------------------------------------|
|--------------------------------------------------------------------|
|--------------------------------------------------------------------|

End! Any comments or crit then email me or pm me.
Thanks...
Comments