Be Bop Deluxe - Jet Silver And The Dolls Of Venus Chords & Tabs

 

Jet Silver And The Dolls Of Venus Chords & Tabs

Be Bop Deluxe Chords & Tabs

Version: 1 Type: Tab 0 ratings
1 star 2 stars 3 stars 4 stars 5 stars
comments

Jet Silver And The Dolls Of Venus Tab

------------------------------------------------------------------------------       
Jet Silver And The Dolls Of Venus (Bill Nelson) - Be Bop Deluxe
-------------------------------------------------------------------------------
Tab by: James Cranford 
 Email: jamiecranford44@hotmail.com
Tuning: standard

sorry I don't know the acoustic strumming bit in the verses, just the distorted guitar
and not too sure on some of the lyrics

	INTRO Riff
e|-----------------------------------------------------------------------------|
B|-17b19r17--13----------------------------------------------------------------|
G|--------------14-------------------------------------------------------------|
D|-----------------16b17r16b17r16—16h17p16-14----16----------------------------|
A|--------------------------------------------17----17--14--12-14/17-----------|
E|-----------------------------------------------------------------------------|

      verse

      Out across the heavens when you're sleeping in your 
e|---------------------------------------------------------------------------|
B|---------------------------------------------------------------------------|
G|-7-let ring----------------------------------------------------------------|
D|-7-------------------------------------------------------------------------|
A|-5-------------------------------------------------------------------------|
E|---------------------------------------------------------------------------|


       Someone turns a light on, can you feel it burn inside your head?
e|---------------------------------------------------------------------------|
B|---------------------------------------------------------------------------|
G|-7-let ring----------------------------------------------------------------|
D|-7-------------------------------------------------------------------------|
A|-5-------------------------------------------------------------------------|
E|---------------------------------------------------------------------------|


e|-----------------------------------------------------------------------------|
B|-----------------------------------------------------------------------------|
G|-----------------------------------------------------------------------------|
D|-3-let ring------------3-----------------------------------------------------|
A|-3------------1h2h3----3—-1h2h3----------------------------------------------|
E|-1---------------------1-----------------------------------------------------|


       Floating out your window on the streams of pure sound
e|---------------------------------------------------------------------------|
B|---------------------------------------------------------------------------|
G|-7-let ring----------------------------------------------------------------|
D|-7-------------------------------------------------------------------------|
A|-5-------------------------------------------------------------------------|
E|---------------------------------------------------------------------------|
[ Tab from: http://www.guitartabs.cc/tabs/b/be_bop_deluxe/jet_silver_and_the_dolls_of_venus_tab.html ]
        Can you see the town?                 In midnight eiderdown (ßlyrics??)
e|---------------------------------------------------------------------------|
B|---------------------------------------------------------------------------|
G|---------------------------------------------------------------------------|
D|-----------10---9---8-----------------9---10---9---8-----------------------|
A|-----------10---9---8-----------------9---10---9---8-----------------------|
E|------------8---7---6-----------------7----8---7---6-----------------------|



         Wrapped in your dressing gown            and rub his face(????)
e|---------------------------------------------------------------------------|
B|---------------------------------------------------------------------------|
G|---------------------------------------------------------------------------|
D|-------9---10---9---8----------------------7-------------------------------|
A|-------9---10---9---8----------------------7-------------------------------|
E|-------7---8----7---6----------------------5-------------------------------|



       Jet Silver and the dolls of venus etc...
e|---------------------------------------------------------------------------|
B|---------------------------------------------------------------------------|
G|---------------------------------------------------------------------------|
D|---------------------------------------------------------------------------|
A|----9-11----9-11-----9----7-9----7-9---7----5-9---5-9---5---5-8------8-11--|
E|-10------10-------10----8------8-----8----7-----7-----7---6-----6--9------9|

       in chords this is D, C, Bm, Bflat, C# 

back to intro riff x1 this time round

verse 2 is the same as above

chorus 2 same as above

then ending solo is played over top of 

e|---------------------------------------------------------------------------|
B|---------------------------------------------------------------------------|
G|---------------------------------------------------------------------------|
D|---------------------------------------------------------------------------|
A|----9-11----9-11-----9----7-9----7-9---7----5-9---5-9---5---5-8------8-11--|
E|-10------10-------10----8------8-----8----7-----7-----7---6-----6--9------9|

scale Bill uses is mainly Dm pentatonic, bit of mix and match scales wise

I'll try and do most of the main riffs in the solo

first one after he says 'yes they do'

e|-10----10----10------------------------------------------------------------|
B|-13b15r13b15r13b15---13b15r13-10-13-10-------------------------------------|
G|---------------------------------------12-10---------something like that---|
D|---------------------------------------------12-10-------------------------|
A|---------------------------------------------------------------------------|
E|---------------------------------------------------------------------------|

 if youre a decent enough player, just play around with Dm pentatonic.

 heres the fast lick that he holds for a few bars

e|--12p10h12h14p12p10-12p10h12h14p12p10--------------------------------------|
B|---------------------------------------------------------------------------|
G|---------------------------------------------------------------------------|
D|---------------------------------------------------------------------------|
A|---------------------------------------------------------------------------|
E|---------------------------------------------------------------------------|
Comments