Bbs Paranoicos - Ausencia Chords & Tabs

 

Ausencia Chords & Tabs

Bbs Paranoicos Chords & Tabs

Version: 1 Type: Tab 0 ratings
1 star 2 stars 3 stars 4 stars 5 stars
comments

Ausencia Tab

www.bbsparanoicos.com
Weno kabros aki tienen 1 tab d uno d los mejores grupos HxC shilenox

|--------|--------|--------|--------|
|--------|--------|--------|--------|
|--------|--------|--------|--------|
|7-77-77-|--------|--------|--------|
|5-55-55-|7-77-77-|9-99-99-|9-99-99-|
|--------|5-55-55-|7-77-77-|7-77-77-|

|--------|--------|--------|--------|
|--------|--------|--------|--------|
|--------|--------|--------|--------|
|--------|--------|--------|--------|
|5-55-55-|5-55-55-|7-77-77-|5-55-55-|
|3-33-33-|3-33-33-|5-55-55-|5-55-55-|


re    la   si       sol        la
cansado ya de fumar siento que que pasan la horas
re   la     si       sol          la
y empiezo a recordar que no estas no estas aqui ahora  


CORO
fa#         sol          la           re  
que hiciste te fuiste no volviste mas
fa#          sol         la             re  
si te marchas y me dejas te arrepentiras 

SOLO 1

re   la    si       sol            la                         
cansado ya de tomar tomar un trago con todos mis amigos
re    la    si         sol        la                         
ellos no pueden llenar llenar ese ese gran vacio


CORO 

fa#     sol   la                re  
por que yo se se que va a faltar
fa#      sol         la              re
todo eso que fue mio que no tengo mas

SOLO 2

fa#     sol   la                  re
por que yo se se que va a faltar
fa#      sol         la     sol   re
todo eso que fue mio que no tengo mas
sol    la    res   sol    la    res  
que no tengo mas   que no tengo mas  
                    



SOLO 1:

  RE          LA          SI             SI         
|---------------------------------------------------
|----10-13----10-13----10-13----10-13----10-13------
|-12b14----12b14----12b14----12b14----12b14----10---
|---------------------------------------------------
|---------------------------------------------------
|---------------------------------------------------

[ Tab from: http://www.guitartabs.cc/tabs/b/bbs_paranoicos/ausencia_tab.html ]
   SOL                     SOL                     
---------------------------------------------------
---------------------------------------------------
---12p10h12p10h12p10h12p10h12p10h12p10h12p10h12p10-
---------------------------------------------------
---------------------------------------------------
---------------------------------------------------
                                                   
                                                   
 LA                        LA                     
--------------------------------------------------
--------------------------------------------------
--------------------------------------------------
-12p10h12p10h12p10h12p10h12p10h12p10h12p10h12p10\-
--------------------------------------------------
--------------------------------------------------
                                                  


 RE                LA                SOL            SOL         
----------------------------------------------------------------
-------------------------------------------13-------13-------13-
----------------------10-12-10----10-12b14----12b14----12b14----
----------10-12-10-12----------12-------------------------------
-12-10-12-------------------------------------------------------
----------------------------------------------------------------


 LA             LA                                           
-------10-------10-------10-|                                
----------------------------|                                
-12b14----12b14----12b14----|                                
----------------------------|                                
----------------------------|                                
----------------------------|                                


SOLO 2:

 RE        LA        SI                      
------------------------------------------
------------------------------------------
-7----7--------------11--------7----------
-9b11-9b11-11b9-7---------7h9-------------
------------------------------------------
------------------------------------------

 SOL                    LA             
------------------------------------------
---------------------------10-------------
---7-6h7p6---7-9-11-9---9b11--10b9-7------
-9---------9------------------------------
------------------------------------------
------------------------------------------


RE     LA         SI       SOL    LA      RE      
-/10---9-10-10h12-10-9-7----------------|----  
-----7-------------------7--------5-7-8-|-7--                
---------------------------/4-6-7-------|---- 
----------------------------------------|----      
----------------------------------------|---- 
----------------------------------------|----
Comments