Bbmak - If I Could Fly Chords & Tabs

 

If I Could Fly Chords & Tabs

Bbmak Chords & Tabs

Version: 1 Type: Tab

If I Could Fly Tab

   
Artist: BBMak
Song: If I Could Fly
Tabbed By: Matthew Florio (myspace.com/mattflorio)
Email/Aim: Shempashland@aol.com

	I’ve seen and heard this song many times and always wanted too learn it!
So I finally sat down and figured it out! It’s too be played in standard tuning!
I also added some of the lead guitar parts just for fun. There are two ways too
play the solo… pick which ever you like the best. Thank you and Enjoy!

Chords
E-022100
Bm-x24400
Fm-244x00
A2-xx0220

Guitar 2: This part is played in the background and is just pinch harmonics.
E-12-12------12------------E
B---------12---------------B
G--------------------------G
D--------------------------D
A--------------------------A
e--------------------------e

Intro:
E  Bm  Fm  A2    E  Bm Fm
[ Tab from: http://www.guitartabs.cc/tabs/b/bbmak/if_i_could_fly_tab.html ]
Verse:
E  Bm  Fm  A2 (4x)
“Close your eyes…”

Pre Chorus:
Fm  A2  E  A2    Fm   A2
“Oceans apart…”

Chorus:
E   Bm   Fm   A2 (5x)   *E   Bm  A2*
“Baby if I could fly…”   *after “lets fly away!”, don’t play this part before bridge.

Bridge:
Fm   A2    E     Fm  A2 
“We’ve got too spread our wings…”

Solo: (I think this is played with a slide but it’s no biggie.)
E--14--14--16--14--18-19-18--14--9--11--4-|---------------------------------E
B------------------------------------------|-5--5-7--5--11-12-11-9--0--2----B
G------------------------------------------|------------------------------0-G
D------------------------------------------|--------------------------------D
A------------------------------------------|--------------------------------A
e------------------------------------------|--------------------------------e