Bb King - The Thrill Is Gone Chords & Tabs

 

The Thrill Is Gone Chords & Tabs

Bb King Chords & Tabs

Version: 1 Type: Tab 0 ratings
1 star 2 stars 3 stars 4 stars 5 stars
comments

The Thrill Is Gone Tab

this is only what B.B. plays.


         (w/clean tone)
      E|---10B1/4-7----------------------------------------------7--
      B|------------10-----------------------------------------7----
      G|---------------9Bfull-7-7-9----7B1/4-----------7-9H(9)------
      D|----------------------------9--------9-9-9H(9)--------------
      A|------------------------------------------------------------
      E|------------------------------------------------------------


      E|-10Bfull--10-7-----10B1/2-10B3/4-12--12B1/2-12-10Bfull-10B1/2--------
      B|----------------12--------------------------------------------12--12-
      G|---------------------------------------------------------------------
      D|---------------------------------------------------------------------
      A|---------------------------------------------------------------------
      E|---------------------------------------------------------------------
[ Tab from: http://www.guitartabs.cc/tabs/b/bb_king/the_thrill_is_gone_tab.html ]
                   ~~~~~~                         ~~~~~~~
      E|-10BFULL-10-----10-------10B1/4-12-12-10-------------------------
      B|-------------------12-12-----------------12------12--------------
      G|-----------------------------------------------------------------
      D|-----------------------------------------------------------------
      A|-----------------------------------------------------------------
      E|-----------------------------------------------------------------

                                                    ~~~~~
      E|-12-12Bfull(12)-H-(10)--10H12-10b1/4----10-------10B1/4-----7---
      B|-------------------------------------12----12-----------12--7---
      G|------------------------------------------------------------7---
      D|----------------------------------------------------------------
      A|----------------------------------------------------------------
      E|----------------------------------------------------------------
Comments