Bb King - Stand By Me Chords & Tabs

 

Stand By Me Chords & Tabs

Bb King Chords & Tabs

Version: 1 Type: Bass Tab 0 ratings
1 star 2 stars 3 stars 4 stars 5 stars
comments

Stand By Me Bass Tab

   
Song: Stand By Me
Artist: B.B. King


INTRO

G|-----------------|------------------|------------------|-----------------|---------------------|
D|--7--7-------6-7-|-7-----7-6-4---4--|----4--4---4-2----|-----------------|---6-7--7----6-7--7--|
A|-----------7-----|------------------|-7-------------5--|-5-----5-9-7---7-|-7---------7---------|
E|-----------------|------------------|------------------|-----------------|---------------------|

THE REST OF THE SONG
[ Tab from: http://www.guitartabs.cc/tabs/b/bb_king/stand_by_me_btab.html ]
G||-----------------|-----------------|-----------------|------------------|
D||*----6--7----7---|----6--7----7----|---7--6--4----4--|-------4--4-------|
A||*-7--------------|-7---------------|-----------------|---7--------------|
E||-----------------|-----------------|-----------------|------------------|

 G|-----------------|-----------------|-----------------|------------------||
 D|--4--2-----------|-----------------|----6--7----7----|----6--7----7----*||
 A|--------5---5----|--5--9--7---7----|-7---------------|-7---------------*||
 E|-----------------|-----------------|-----------------|------------------||
Comments