Bb King - Mean Old World Chords & Tabs

 

Mean Old World Chords & Tabs

Bb King Chords & Tabs

Version: 1 Type: Tab 0 ratings
1 star 2 stars 3 stars 4 stars 5 stars
comments

Mean Old World Tab

Band Name : BB King
Song Name : Mean old world
Tabbed By : Terry Sims (Masterofdarknes)
Email     : Floyd_Fan89@teenspot.com


Solo

E||--4------------------------|--------------------4~---4--|
B||---------------------------|----------------------------|
G||---------------------------|----------------------------|
D||---------------------------|----------------------------|
A||---------------------------|----------------------------|
E||---------------------------|----------------------------|

--6b---------------11b-------|--11--10--9--------------------------9b-|
-----------------------------|-------------12--9--12--9------11b------|
-----------------------------|----------------------------------------|
-----------------------------|----------------------------------------|
-----------------------------|----------------------------------------|
-----------------------------|----------------------------------------|

--------------------------|------------------11b-----14--|
--------------------------|------------------------------|
--------------------------|------------------------------|
--------------------------|------------------------------|
--------------------------|------------------------------|
--------------------------|------------------------------|

--14--11--9b-9-------------------------|----------------------------|
----------------11r---9----9~-----9----|----11b---------------------|
------------------------10-------------|----------------------------|
---------------------------------------|----------------------------|
---------------------------------------|----------------------------|
---------------------------------------|----------------------------|

------------9r--------------|------------------6b-9--9b---|
-----------------9~---------|-----------------------------|
----------------------------|-----------------------------|
----------------------------|-----------------------------|
----------------------------|-----------------------------|
----------------------------|-----------------------------|

--7b-------------------------|-----------------------------|
---------x----9~-------------|----------------------9~-----|
-----------------------------|------------------10---------|
-----------------------------|-----------------------------|
-----------------------------|-----------------------------|
-----------------------------|-----------------------------|
[ Tab from: http://www.guitartabs.cc/tabs/b/bb_king/mean_old_world_tab.html ]
----------------------------|----11b---11-9---------------------|
--11b-----------------------|---------------12----9~-----9~-----|
----------------------------|-----------------------------------|
----------------------------|-----------------------------------|
----------------------------|-----------------------------------|
----------------------------|-----------------------------------|

----------------------------|------16~---------------------------------|
--11b-----------------------|----------------14b-14p12-14---12p9----9~-|
----------------------------|------------------------------------10----|
----------------------------|------------------------------------------|
----------------------------|------------------------------------------|
----------------------------|------------------------------------------|

----------------------------|------11b-----11/-14-11-------------------|
----11b---------------------|------------------------14-12~--------14--|
----------------------------|--------------------------------13--------|
----------------------------|------------------------------------------|
----------------------------|------------------------------------------|
----------------------------|------------------------------------------|

----------------------------|----------------------------9--9b---|
--12b-----------------------|----12b---11b9-9~-------11b---------|
----------------------------|------------------------------------|
----------------------------|------------------------------------|
----------------------------|------------------------------------|
----------------------------|------------------------------------|

----------------------9r----|---------------------------|
-------------------------9--|--9~-----------------------|
----------------------------|---------------------------|
----------------------------|---------------------------|
----------------------------|---------------------------|
----------------------------|---------------------------|

------11b-----11--11b---11-9----------|--4----------------------------------|
-----------------------------12b---9\-|----7p4---4~-------------------------|
--------------------------------------|--------5----6p-4~-------------------|
--------------------------------------|---------------------6p4-------------|
--------------------------------------|-------------------------6-4---2-----|
--------------------------------------|-------------------------------------|

----------------||
----------------||
----------------||
-------4~-------||
----------------||
--4-------------||
Comments