Bb King - Into The Night Chords & Tabs

 

Bb King Chords & Tabs

Version: 1 Type: Bass Tab 0 ratings
1 star 2 stars 3 stars 4 stars 5 stars
comments

Into The Night Bass Tab

   
bb king - into the night
tuneing G,D,A,E
 	Timeing 4/4

       
|--------------------------------|--------------------------------|
|------------------------0-------|------------------------0-------|
|--------------------------------|----------------------------1---|
|3---3---3---3---3---3-------1---|3---3---1---3---3-1-3-----------|

        
|--------------------------------|--------------------------------|
|--------------------------------|1---1---1---1---0---0---0---0---|
|--------------------------------|--------------------------------|
|3---3---3---3---1---1---1---1---|--------------------------------|

       
|--------------------------------|--------------------------------|
|------------------------0-------|------------------------0-------|
|--------------------------------|----------------------------1---|
|3---3---3---3---3---3-------1---|3---3---1---3---3-1-3-----------|

      
|--------------------------------|--------------------------------|
|--------------------------------|1---1---1---1---0---0---0---0---|
|--------------------------------|--------------------------------|
|3---3---3---3---1---1---1---1---|--------------------------------|

       
|--------------------------------|--------------------------------|
|--------------------------------|0---0---0---0---0---0---0-------|
|3---3---3---3---3---3---3---3---|--------------------------------|
|--------------------------------|----------------------------1---|

      
|--------------------------------|--------------------------------|
|--------------------------------|--------------------------------|
|--------------------------------|3---3---3---3---3---3---3---3---|
|3---3---3---3---1---1---1---1---|--------------------------------|

      
|--------------------------------|--------------------------------|
|----------------0---0---0---0---|1---1---1---1-------------------|
|3---3---3---3-------------------|--------------------------------|
|--------------------------------|----------------1---1---1---1---|

        
|--------------------------------|--------------------------------|
|------------------------0-------|----------------------------0---|
|--------------------------------|--------------------------------|
|3---3---3---3---3---3-------1---|3---3---1---3---3---3---3-1-----|

        
|--------------------------------|--------------------------------|
|--------------------------------|0---0---0---0---0---0---0-------|
|3---3---3---3---3---3---3---3---|--------------------------------|
|--------------------------------|----------------------------1---|

      
|--------------------------------|--------------------------------|
|--------------------------------|--------------------------------|
|--------------------------------|3---3---3---3---3---3---3---3---|
|3---3---3---3---1---1---1---1---|--------------------------------|

       
|--------------------------------|--------------------------------|
|--------------------------------|--------------------------------|
|3---3---3---3---3---3---3---3---|--------------------------------|
|--------------------------------|1---1---1---1---1---1---1---3---|

        
|--------------------------------|--------------------------------|
|----------------0---0---0---0---|1---1---1---1---------1-0-------|
|3---3---3---3-------------------|--------------------------------|
|--------------------------------|----------------1---1-----------|

        
|--------------------------------|--------------------------------|
|------------------------0-------|------------------------0-------|
|--------------------------------|----------------------------1---|
|3---3---3---3---3---3-------1---|3---3---1---3---3-1-3-----------|

      
|--------------------------------|--------------------------------|
|--------------------------------|1---1---1---1---0---0---0---0---|
|--------------------------------|--------------------------------|
|3---3---3---3---1---1---1---1---|--------------------------------|

        
|--------------------------------|--------------------------------|
|------------------------0-------|------------------------0-------|
|--------------------------------|----------------------------1---|
|3---3---3---3---3---3-------1---|3---3---1---3---3-1-3-----------|

        
|--------------------------------|--------------------------------|
|--------------------------------|1---1---1---1---0---0---0---0---|
|--------------------------------|--------------------------------|
|3---3---3---3---1---1---1---1---|--------------------------------|

       
|--------------------------------|--------------------------------|
|--------------------------------|0---0---0---0---0---0---0---0---|
|3---3---3---3---3---3---3---3---|--------------------------------|
|--------------------------------|--------------------------------|

       
|--------------------------------|--------------------------------|
|--------------------------------|--------------------------------|
|--------------------------------|3---3---3---3---1---3---3---3---|
|3---3---3---3---1---1---1---1---|--------------------------------|

        
|--------------------------------|--------------------------------|
|----------------0---0---0---0---|1---1---1---1-------------------|
|3---3---3---3-------------------|--------------------------------|
|--------------------------------|----------------1---1---1---1---|

    
|--------------------------------|--------------------------------|
|------------------------0-------|----------------------------0---|
|--------------------------------|--------------------------------|
|3---3---3---3---3---3-------1---|3---3---1---3---3---3---3-1-----|

        
|--------------------------------|--------------------------------|
|--------------------------------|0---0---0---0---0---0---0-------|
|3---3---3---3---3---3---3---3---|--------------------------------|
|--------------------------------|----------------------------1---|

     
|--------------------------------|--------------------------------|
|--------------------------------|--------------------------------|
|--------------------------------|3---3---3---1-------3---3---3---|
|3---3---3---3---1---1---1---1---|--------------------------------|
       
|--------------------------------|--------------------------------|
|----------------0---0---0---0---|1---1---1---1---1---1---1---0---|
|3---3---3---3-------------------|--------------------------------|
|--------------------------------|--------------------------------|

        
|--------------------------------|--------------------------------|
|----------------0---0---0---0---|1---1---1---1---------1-0-------|
|3---3---3---3-------------------|--------------------------------|
|--------------------------------|----------------1---1-----------|

         
|--------------------------------|--------------------------------|
|------------------------0-------|------------------------0-------|
|--------------------------------|----------------------------1---|
|3---3---3---3---3---3-------1---|3---3---1---3---3-1-3-----------|
[ Tab from: http://www.guitartabs.cc/tabs/b/bb_king/into_the_night_btab.html ]
        
|--------------------------------|--------------------------------|
|--------------------------------|1---1---1---1---0---0---0---0---|
|--------------------------------|--------------------------------|
|3---3---3---3---1---1---1---1---|--------------------------------|

      
|--------------------------------|--------------------------------|
|------------------------0-------|------------------------0-------|
|--------------------------------|----------------------------1---|
|3---3---3---3---3---3-------1---|3---3---1---3---3-1-3---------3-|

       
|--------------------------------|--------------------------------|
|--------------------------------|--------------------------------|
|--------------------------------|3---3---3---3---3---3---1---3---|
|3---3---3---3---1---1---1---1---|--------------------------------|

       
|--------------------------------|--------------------------------|
|--------------------------------|0---0---0---0---0---0---0---0---|
|3---3---3---3---3---3---3---3---|--------------------------------|
|--------------------------------|--------------------------------|

       
|--------------------------------|--------------------------------|
|------------------------0-------|----------------------------0---|
|--------------------------------|--------------------------------|
|3---3---3---3---3---3-------1---|3---3---1---3---3---3---3-1-----|

       
|--------------------------------|--------------------------------|
|--------------------------------|0---0---0---0---0---0---0---0---|
|3---3---3---3---3---3---3---3---|--------------------------------|
|--------------------------------|--------------------------------|

        
|--------------------------------|--------------------------------|
|1---1---1---1---1---1---1---1---|----------------------1-0-----0-|
|--------------------------------|--------------------------------|
|--------------------------------|1---1---1---1---1---1-------1---|

       
|--------------------------------|--------------------------------|
|------------------------0-------|------------------------0-------|
|--------------------------------|----------------------------1---|
|3---3---3---3---3---3-------1---|3---3---1---3---3-1-3-----------|

      
|--------------------------------|--------------------------------|
|--------------------------------|1---1---1---1---0---0---0---0---|
|--------------------------------|--------------------------------|
|3---3---3---3---1---1---1---1---|--------------------------------|

       
|--------------------------------|--------------------------------|
|------------------------0-------|------------------------0-------|
|--------------------------------|----------------------------1---|
|3---3---3---3---3---3-------1---|3---3---1---3---3-1-3-----------|

      
|--------------------------------|--------------------------------|
|--------------------------------|1---1---1---1---0---0---0---0---|
|--------------------------------|--------------------------------|
|3---3---3---3---1---1---1---1---|--------------------------------|

      
|--------------------------------|--------------------------------|
|--------------------------------|0---0---0---0---0---0---0---0---|
|3---3---3---3---3---3---3---3---|--------------------------------|
|--------------------------------|--------------------------------|

     
|--------------------------------|--------------------------------|
|--------------------------------|--------------------------------|
|--------------------------------|3---3---3---3---1---3---3---3---|
|3---3---3---3---1---1---1---1---|--------------------------------|

       
|--------------------------------|--------------------------------|
|----------------0---0---0---0---|1---1---1---1-------------------|
|3---3---3---3-------------------|--------------------------------|
|--------------------------------|----------------1---1---1---1---|

     
|--------------------------------|--------------------------------|
|------------------------0-------|----------------------------0---|
|--------------------------------|--------------------------------|
|3---3---3---3---3---3-------1---|3---3---1---3---3---3---3-1-----|

       
|--------------------------------|--------------------------------|
|--------------------------------|0---0---0---0---0---0---0-------|
|3---3---3---3---3---3---3---3---|--------------------------------|
|--------------------------------|----------------------------1---|

      
|--------------------------------|--------------------------------|
|--------------------------------|--------------------------------|
|--------------------------------|3---3---3---1-------3---3---3---|
|3---3---3---3---1---1---1---1---|--------------------------------|

       
|--------------------------------|--------------------------------|
|----------------0---0---0---0---|1---1---1---1---1---1---1---0---|
|3---3---3---3-------------------|--------------------------------|
|--------------------------------|--------------------------------|

       
|--------------------------------|--------------------------------|
|----------------0---0---0---0---|1---1---1---1---------1-0-------|
|3---3---3---3-------------------|--------------------------------|
|--------------------------------|----------------1---1-----------|

       
|--------------------------------|--------------------------------|
|------------------------0-------|------------------------0-------|
|--------------------------------|----------------------------1---|
|3---3---3---3---3---3-------1---|3---3---1---3---3-1-3-----------|

      
|--------------------------------|--------------------------------|
|--------------------------------|1---1---1---1---0---0---0---0---|
|--------------------------------|--------------------------------|
|3---3---3---3---1---1---1---1---|--------------------------------|

       
|--------------------------------|--------------------------------|
|------------------------0-------|------------------------0-------|
|--------------------------------|----------------------------1---|
|3---3---3---3---3---3-------1---|3---3---1---3---3-1-3-----------|

       
|--------------------------------|--------------------------------|
|--------------------------------|--------------------------0-----|
|--------------------------------|3---3---3---3---3---3---3---1---|
|3---3---3---3---1---1---1---1---|--------------------------------|

       
|--------------------------------|--------------------------------|
|--------------------------------|1---1---1---1---0---0---0---0---|
|--------------------------------|--------------------------------|
|3---3---3---3---1---1---1---1---|--------------------------------|

       
|--------------------------------|--------------------------------|
|------------------------0-------|------------------------0-------|
|--------------------------------|----------------------------1---|
|3---3---3---3---3---3-------1---|3---3---1---3---3-1-3-----------|

        
|--------------------------------|--------------------------------|
|--------------------------------|--------------------------------|
|--------------------------------|3---3---3---3---3---3---3---3---|
|3---3---3---3---1---1---1---1---|--------------------------------|

      
|--------------------------------|
|--------------------------------|
|--------------------------------|
|3-------------------------------|

Comments