Bb Brunes - 68 Chords & Tabs

 

Bb Brunes Chords & Tabs

Version: 1 Type: Tab 0 ratings
1 star 2 stars 3 stars 4 stars 5 stars
comments

68 Tab

   
-------------------------------------------------------------------------------
                           68 – BB Brunes
-------------------------------------------------------------------------------
Tabbed by:rémilucie

Tuning:standard

e|----------------------------------------------------------|
B|----------------------------------------------------------|
G|----------------------------------------------------------|X2
D|----------------------------------------------------------|
A|--------4-6-7-8-7-6------------4-6-7-8-7-6----------------|
E|--6-6-6-----------------6-6-6-----------------------------|

devant tes yeux bleus foncés je n'aurais jamais jamais dû pleu
car devant deux défoncés les gens ne savent savent pas s'arrêter
je me réveille en sursaut et ne pourrai jamais jamais oublier
que par ici les gens crevaient et par-dessus les gens crachaient
    A#           D#           G#           C#
e|--6--6--6-6-6--6--6--6-6-6--4--4--4-4-4--4--4--4-4-4------|
B|--6--6--6-6-6--7--7--7-7-7--4--4--4-4-4--5--5--5-5-5------|
G|--7--7--7-7-7--7--7--7-7-7--5--5--5-5-5--5--5--5-5-5------|X4
D|--8--8--8-8-8--7--7--7-7-7--6--6--6-6-6--5--5--5-5-5------|
A|--8--8--8-8-8--6--6--6-6-6--6--6--6-6-6--4--4--4-4-4------|
E|--6--6--6-6-6--6--6--6-6-6--4--4--4-4-4--4--4--4-4-4------|

                                          comme en sixty-hate
    A#           D#           F            F#             
e|--6---6--6-6---6---6--6-6---8---8--8-8---9----9---9--9----|
B|--6---6--6-6---7---7--7-7---9---9--9-9---10---10--10-10---|
G|--7---7--7-7---7---7--7-7---9---9--9-9---10---10--10-10---|X2
D|--8---8--8-8---7---7--7-7---9---9--9-9---10---10--10-10---|
A|--8---8--8-8---6---6--6-6---8---8--8-8---9----9---9--9----|
E|--6---6--6-6---6---6--6-6---8---8--8-8---9----9---9--9----|

 songs called rock&roll baby drives in the 68's
 songs called rock&roll baby drives in the sixties
    C    C#   A#
e|----------------------------------------------------------|
B|----------------------------------------------------------|
G|----------------------------------------------------------|
D|--10---11---8/11-8-8-8-8/11-8---10---11-------------------|
A|--10---11---8/11-8-8-8-8/11-8---10---11----4-6-7-8-7-6-4--|
E|--8----9----6/9--6-6-6-6/9--6---8----9---6----------------|

c'est tellement mieux les yeux fermés mais quand te mettras tu à jouer
jouer jouer à faire crier les mots qui fâchent les mots démodés
pourquoi depuis 77 de pauvres hommes trainent ils dans la rue
sex latex et rock&roll ne rentre pas tro tard non plus
    A#           D#           G#           C#
e|--6--6--6-6-6--6--6--6-6-6--4--4--4-4-4--4--4--4-4-4------|
B|--6--6--6-6-6--7--7--7-7-7--4--4--4-4-4--5--5--5-5-5------|
G|--7--7--7-7-7--7--7--7-7-7--5--5--5-5-5--5--5--5-5-5------|X4
D|--8--8--8-8-8--7--7--7-7-7--6--6--6-6-6--5--5--5-5-5------|
A|--8--8--8-8-8--6--6--6-6-6--6--6--6-6-6--4--4--4-4-4------|
E|--6--6--6-6-6--6--6--6-6-6--4--4--4-4-4--4--4--4-4-4------|
[ Tab from: http://www.guitartabs.cc/tabs/b/bb_brunes/68_tab.html ]
                                          comme en sixty-hate
    A#           D#           F            F#             
e|--6---6--6-6---6---6--6-6---8---8--8-8---9----9---9--9----|
B|--6---6--6-6---7---7--7-7---9---9--9-9---10---10--10-10---|
G|--7---7--7-7---7---7--7-7---9---9--9-9---10---10--10-10---|X2
D|--8---8--8-8---7---7--7-7---9---9--9-9---10---10--10-10---|
A|--8---8--8-8---6---6--6-6---8---8--8-8---9----9---9--9----|
E|--6---6--6-6---6---6--6-6---8---8--8-8---9----9---9--9----|

 songs called rock&roll baby drives in the 68's
 songs called rock&roll baby drives in the 68's
    C   C#   A#
e|----------------------------------------------------------|
B|----------------------------------------------------------|
G|----------------------------------------------------------|
D|-10---11---8/11-8-8-8-8/11-8---10---11---8/11-8-8-8-8/11-8|
A|-10---11---8/11-8-8-8-8/11-8---10---11---8/11-8-8-8-8/11-8|
E|-8----9----6/9--6-6-6-6/9--6---8----9----6/9--6-6-6-6/9--6|

           but you win      you win     you win        you win
   C    C#          F#
e|-----------9--9---9--9---9--9---9--9---9--9---9--9---9--9---9--9-|
B|-----------9--9---11-11--9--9---11-11--9--9---11-11--9--9---11-11|
G|-----------10-10--11-11--10-10--11-11--10-10--11-11--10-10--11-11|
D|-10---11---11-11--11-11--11-11--11-11--11-11--11-11--11-11--11-11|
A|-10---11---11-11--9--9---11-11--9--9---11-11--9--9---11-11--9--9-|
E|-8----9----9--9---9--9---9--9---9--9---9--9---9--9---9--9---9--9-|

e|-----------------------------------------------4-4/6------|
B|-----------------------------------------------4-4/6------|
G|-----------------------------------------------5-5/7------|
D|-11/8---------------------bass only------------6-6/8------|
A|-11/8------------------------------------------6-6/8------|
E|-9-/6------------------------------------------4-4/6------|

  they've stolen my beautiful
  they've stolen my beautiful
  they've stolen my beautiful me
e|----------------------------------------------------------------|
B|----------------------------------------------------------------|
G|----------------------------------------------------------------|X4
D|----------------------------------------------------------------|
A|---4-6-7-8-7-6-4---4-6-7-8-7-6-4---4-6-7-8-7-6-4---4-6-7-8-7-6-4|
E|-6---------------6---------------6----------------6-------------|

    A#           D#           G#              
e|--6--6--6-6-6--6--6--6-6-6--4--4--4-4-4-------------------|
B|--6--6--6-6-6--7--7--7-7-7--4--4--4-4-4-------------------|
G|--7--7--7-7-7--7--7--7-7-7--5--5--5-5-5-------------------|
D|--8--8--8-8-8--7--7--7-7-7--6--6--6-6-6-------------------|
A|--8--8--8-8-8--6--6--6-6-6--6--6--6-6-6-------------------|
E|--6--6--6-6-6--6--6--6-6-6--4--4--4-4-4-------------------|

                                         comme en 68's
                                         comme en sixty-hate
                                         comme en 68's
    A#           D#           G#           C#
e|--6--6--6-6-6--6--6--6-6-6--4--4--4-4-4--4--4--4-4-4------|
B|--6--6--6-6-6--7--7--7-7-7--4--4--4-4-4--5--5--5-5-5------|
G|--7--7--7-7-7--7--7--7-7-7--5--5--5-5-5--5--5--5-5-5------|X4
D|--8--8--8-8-8--7--7--7-7-7--6--6--6-6-6--5--5--5-5-5------|
A|--8--8--8-8-8--6--6--6-6-6--6--6--6-6-6--4--4--4-4-4------|
E|--6--6--6-6-6--6--6--6-6-6--4--4--4-4-4--4--4--4-4-4-------

e|----------------------------------------------------------|
B|----------------------------------------------------------|
G|----------------------------------------------------------|
D|----------------------------------------------------------|
A|--------4-6-7-8-7-6------------4-6-7-8-7-6----------------|
E|--6-6-6-----------------6-6-6--------------6-6-6----------|




| /  slide up
| \  slide down
| h  hammer-on
| p  pull-off
| ~  vibrato
| +  harmonic
| x  Mute note
===============================================================================

Comments
Bb Brunes chords | Bb Brunes 68 tab