Bayside - Winter Chords & Tabs

 

Winter Chords & Tabs

Bayside Chords & Tabs

Version: 2 Type: Tab

Winter Tab

e--------------------------------------------------|
B--------------------------------------------------|
G---8h9p8-------11-----8h9p8--------11/1311--------|
D---------11--9----------------11--9---------------|
A--------------------------------------------------|
E--------------------------------------------------|
[ Tab from: http://www.guitartabs.cc/tabs/b/bayside/winter_tab_ver_2.html ]
e--------------------------------------------------------|
B--------------------------------------------------------|
G----8h9p8-------11------------8h9p8---------------------|
D----------11--9-----9-9/11----------11--9---------------|
A-------------------------------------------9-9----------|
E------------------------------------------------9--7----|