Bayside - Tortures Of The Damned Chords & Tabs

 

Tortures Of The Damned Chords & Tabs

Bayside Chords & Tabs

Version: 1 Type: Tab

Tortures Of The Damned Tab

BAYSIDE - TORTURES OF THE DAMNED

Drop D tuning

This is how iplay the song i know its not all correct but it still sounds good when your 
it....if anything needs to be added or w.e. mail me at:

Hastetheday118@yahoo.com


///GUITAR 1\\\


---------------------------------------------------------|
---------------------------------------------------------|
--4-~------4-~-------------------------------------------|
--4-~------4-~-------------------------------------------|
--2-~------2-~-------------------------------------------|
---------------------------------------------------------|


---------------------------------------------------------|X2
---------------------------------------------------------|
-4-4-4-4-------------------------------------------------|
-4-4-4-4--5-5-5-5--2-2-2-2--4-4-4-4----------------------|
-2-2-2-2--5-5-5-5--2-2-2-2--4-4-4-4----------------------|
----------5-5-5-5--2-2-2-2--4-4-4-4----------------------|

                           ...I HATE MYSELF...(2ND TIME)

[PM]
---------------------------------------------------------|X2
---------------------------------------------------------|
-4-X16---------------------------------------------------|
-4--------5-X16----2-X16--4-X16--------------------------|
-2--------5--------2------4------------------------------|
----------5--------2------4------------------------------|
 .        .        .      .

...IV MADE MISTAKES...
------------------------------------------------------------|
------------------------------------------------------------|
----------4-4-4-4--6-~--7-~---------------------------------|
-~-5-X10--4-4-4-4--6-~--7-~--5-X8/7-X8----------------------|
-~-5------2-2-2-2--4-~--5-~--5---/7-------------------------|
-~-5-------------------------5---/7-------------------------|
   .(GET LOUDER)          (PLAY FAST)


...THESE THINGS IV FAILED BEFOR...
----------------------------------------------------------|
----------------------------------------------------------|
--4-X8---7-X8---------------------------------------------|
--4------7-----5-X8---7-X8--------------------------------|
--2------5-----5------7-----------------------------------|
---------------5------7-----------------------------------|

...IT JUST HURTS TO BE A MAN...
--------------------------------------------------------|
--------------------------------------------------------|
--4-X8--------------------------------------------------|
--4-----4-X8--5-X8--2-X8--------------------------------|
--2-----4-----5-----2-----------------------------------|
--------4-----5-----2-----------------------------------|


---------------------------------------------------------|X2
---------------------------------------------------------|
-4-4-4-4-------------------------------------------------|
-4-4-4-4--5-5-5-5/-2-2-2-2/-4-4-4-4----------------------|
-2-2-2-2--5-5-5-5/-2-2-2-2/-4-4-4-4----------------------|
----------5-5-5-5/-2-2-2-2/-4-4-4-4----------------------|
 . . .    . . .    . . .    . . .   "IF I ONLY HAD AN AX"(2ND TIME)


---------------------------------------------------------|X2
---------------------------------------------------------|
-4-X16---------------------------------------------------|
-4--------5-X16----2-X16--4-X16--------------------------|
-2--------5--------2------4------------------------------|
----------5--------2------4------------------------------|
 .        .        .      .


...IV MADE MISTAKES...
------------------------------------------------------------|
------------------------------------------------------------|
----------4-4-4-4--6-~--7-~---------------------------------|
-~-5-X10--4-4-4-4--6-~--7-~--5-X8/7-X8----------------------|
-~-5------2-2-2-2--4-~--5-~--5---/7-------------------------|
-~-5-------------------------5---/7-------------------------|
   .(GET LOUDER)          (PLAY FAST)


...THESE THINGS IV FAILED BEFOR...
----------------------------------------------------------|
----------------------------------------------------------|
--4-X8---7-X8---------------------------------------------|
--4------7-----5-X8---7-X8--------------------------------|
--2------5-----5------7-----------------------------------|
---------------5------7-----------------------------------|
[ Tab from: http://www.guitartabs.cc/tabs/b/bayside/tortures_of_the_damned_tab.html ]
...IT JUST HURTS TO BE A MAN...
--------------------------------------------------------|
--------------------------------------------------------|
--4-X8--------------------------------------------------|
--4-----4-X8--5-X8--2-X6--------------------------------|
--2-----4-----5-----2-----------------------------------|
--------4-----5-----2-----------------------------------|
...THROUGH THE TORTURES OF THE DAMED...


--------------------------------------------------------|
--------------------------------------------------------|
--------6--11-------------------------------------------|
--4--8--6--11-------------------------------------------|
--4--8--4--9--------------------------------------------|
--4--8--------------------------------------------------|


---------------------------------------------------------|X3
---------------------------------------------------------|
--4-4--6-7-----------------------------------------------|
--4-4--6-7---4-~---5-X8/-4-X8----------------------------|
--2-2--4-5---4-~---5---/-4-------------------------------|
-------------4-~---5---/-4-------------------------------|
            ...IM ON THE TRACKS...

--------------------------------------------------------|
--------------------------------------------------------|
--4-4--6-7----------------------------------------------|
--4-4--6-7---4-~---5-X8/-4-4-4--X-X--X------------------|
--2-2--4-5---4-~---5---/-4-4-4--X-X--X------------------|
-------------4-~---5---/-4-4-4--X-X--X------------------|


--------------------------------------------------------| X2
--------------------------------------------------------|
--4-~-4-------------------------------------------------|
--4-~-4----5-~---5-7-~-7---7--4-~-----------------------|
--2-~-2----5-~---5-7-~-7---7--4-~-----------------------|
-----------5-~---5-7-~-7---7--4-~-----------------------|


...IV MADE MISTAKES...
------------------------------------------------------------|
------------------------------------------------------------|
----------4-4-4-4--6-~--7-~---------------------------------|
-~-5-X10--4-4-4-4--6-~--7-~--5-X8/7-X8----------------------|
-~-5------2-2-2-2--4-~--5-~--5---/7-------------------------|
-~-5-------------------------5---/7-------------------------|
   .(GET LOUDER)          (PLAY FAST)


...THESE THINGS IV FAILED BEFOR...
----------------------------------------------------------|
----------------------------------------------------------|
--4-X8---7-X8---------------------------------------------|
--4------7-----5-X8---7-X8--------------------------------|
--2------5-----5------7-----------------------------------|
---------------5------7-----------------------------------|

...IT JUST HURTS TO BE A MAN...
--------------------------------------------------------|
--------------------------------------------------------|
--4-X8--------------------------------------------------|
--4-----4-X8--5-X8--2-X8--------------------------------|
--2-----4-----5-----2-----------------------------------|
--------4-----5-----2-----------------------------------|
                    (START TO P.M.)
..IV MADE MISTAKES...(2ND TIME)
--------------------------------------------------------|
--------------------------------------------------------|
--6-X4---8-~--7-~---------------------------------------|
--6------8-~--7-~---7-x8/--9--x8------------------------|
--4------6-~--9-~---7---/--9----------------------------|
--------------------7---/--9----------------------------|

...these things iv failed befor...
--------------------------------------------------------|
--------------------------------------------------------|
--6-x8--7-x8--------------------------------------------|
--6-----7---7-x8--9-x8----------------------------------|
--4-----9---7-----9-------------------------------------|
------------7-----9-------------------------------------|

...it just hurts to be a man...
--------------------------------------------------------|
--------------------------------------------------------|
--6-x8--------------------------------------------------|
--6----6-x8-7-x8-4-x12----------------------------------|
--4----6----7----4--------------------------------------|
-------6----7----4--------------------------------------|


---------------------------------------------------------|X4
---------------------------------------------------------|
-6-6-6-6-------------------------------------------------|
-6-6-6-6--7-7-7-7--4-4-4-4--6-6-6-6----------------------|
-4-4-4-4--7-7-7-7--4-4-4-4--6-6-6-6----------------------|
----------7-7-7-7--4-4-4-4--6-6-6-6----------------------|
    ...OF THE DAMNED...
--------------------------------------------------------|
--------------------------------------------------------|
-6-----6-~----------------------------------------------|
-6--6--6-~----------------------------------------------|
-4--6--4-~----------------------------------------------|
----6---------------------------------------------------|