Bayside - Masterpiece Chords & Tabs

 

Masterpiece Chords & Tabs

Bayside Chords & Tabs

Version: 1 Type: Tab 0 ratings
1 star 2 stars 3 stars 4 stars 5 stars
comments

Masterpiece Tab

   
                     bayside-masterpiece

intro
e-------------------|
b-------------------|
g-55555555-88888888-|
d-55555555-88888888-| x4
a-33333333-66666666-|
e-------------------|

my friend...(verse)
e-------------------------------------------------------------|
b-------------------------------------------------------------|
g-------------------------------------------------------------|
d-55555555-88888888-5555-3333---------------55555555-88888888-|
a-33333333-66666666-3333-1111-6666-10-8-6-5-33333333-66666666-|
e-----------------------------4444--8-6-4-3-------------------|
   pm....   .......   ..   ..   ..
[ Tab from: http://www.guitartabs.cc/tabs/b/bayside/masterpiece_tab.html ]
every bottle in the place...(prechorus)
e---------------------------------------------------------------------|
b---------------------------------------------------------------------|
g---------------------------------------------------------------------|
d----------------00-11-33-11------------------00-11-33-11-------------|
a-66-6-88-8-3333-------------1-66-6-88-8-3333-------------1-66-6-88-8-|
e-44-4-66-6--------------------44-4-66-6--------------------44-4-66-6-|
  pm   ..                      ..   ..                      ..   ..

you're not eighteen...
e-----------------------------------------|
b-----------------------------------------|
g-5555-8888-----------------8888----------|
d-5555-8888-8888-33-55-6666-8888-55555555-| x4
a-3333-6666-8888-33-55-6666-6666-55555555-|
e-----------6666-11-33-4444------33333333-|

intro x2
verse
prechorus
chorus

when is enough finally enough...
e----------------------------------------|
b----------------------------------------|
g----------------------------------------|
d-88888888------5555-5555------8888------| x2
a-66666666-5555-2222-3333-6666-6666-5555-|
e----------3333-----------4444------3333-|

part after when is enough...
e--------------------|
b--------------------|
g--------------------|
d-88888888-4444444/6-| x4
a-66666666-2222222/4-|
e--------------------|
   pm.....  .....
chorus x8

instant message me on punkguitarist360 if u wanna chat...
Comments