Bayside - How To Fix Everything Chords & Tabs

 

How To Fix Everything Chords & Tabs

Bayside Chords & Tabs

Version: 1 Type: Tab 0 ratings
1 star 2 stars 3 stars 4 stars 5 stars
comments

How To Fix Everything Tab

www.baysiderocks.com

Band  : Bayside
Album : Sirens and Condolences ('2004)

Well I wanted this song. Its a cool song, easy to play, sounds cool. Thanks Andrew for ALL the help.
[ Tab from: http://www.guitartabs.cc/tabs/b/bayside/how_to_fix_everything_tab.html ]
Intro
e|-------------------------------------------------------------------------|
B|-------------------------------------------------------------------------|
G|-7-7-7------------------------5-5-5-5------------------------------------|
D|-7-7-7--7-7-7-8-8-8--3-3-3-3--5-5-5-5-----x4-----------------------------|
A|-5-5-5--7-7-7-8-8-8--3-3-3-3--3-3-3-3------------------------------------|
E|--------5-5-5-6-6-6--1-1-1-1---------------------------------------------|
Verse
e|-------------------------------------------------------------------------|
B|-------------------------------------------------------------------------|
G|------------7-7-7-7-------------------7-7-7------------------------------|
D|-3-3-3-3--3-7-7-7-7-7-7-7-7-7-8-8-8-8-7-7-7-8-8-8-7-7-7-3-3-3-8-8-7-7-3-3|
A|-3-3-3-3--3-5-5-5-5-7-7-7-7-7-8-8-8-8-5-5-5-8-8-8-7-7-7-3-3-3-8-8-7-7-3-3|
E|-1-1-1-1--1---------5-5-5-5-5-6-6-6-6-------6-6-6-5-5-5-1-1-1-6-6-5-5-1-1|
Pre-Chorus
e|-------------------------------------------------------------------------|
B|-------------------------------------------------------------------------|
G|-7-7-7-7-5-5-5-5-3-3-3-3--12-12-12-11-11-11-5-5-5-3-3-3-5-5-7-7-3-3-3-3--|
D|-7-7-7-7-5-5-5-5-3-3-3-3--12-12-12-11-11-11-5-5-5-3-3-3-5-5-7-7-3-3-3-3--|
A|-5-5-5-5-3-3-3-3-1-1-1-1--10-10-10-9--9--9--3-3-3-1-1-1-3-3-5-5-1-1-1-1--|
E|-------------------------------------------------------------------------|
Chorus
e|-------------------------------------------------------------------------|
B|-------------------------------------------------------------------------|
G|-3--7-7-7-5-5-5-5-5----------------------------3-3-3-3--7-7-7-7--5-5-5-5-|
D|-3--7-7-7-5-5-5-5-5----3-3-3-3-3--7-7-7-7-7----3-3-3-3--7-7-7-7--5-5-5-5-|
A|-1--5-5-5-3-3-3-3-3----3-3-3-3-3--7-7-7-7-7----1-1-1-1--5-5-5-5--3-3-3-3-|
E|-----------------------1-1-1-1-1--5-5-5-5-5------------------------------|
Bridge
e|-------------------------------------------------------------------------|
B|-------------------------------------------------------------------------|
G|-7-7-7------------------------5-5-5-5------------------------------------|
D|-7-7-7--7-7-7-8-8-8--3-3-3-3--5-5-5-5-----x2-----------------------------|
A|-5-5-5--7-7-7-8-8-8--3-3-3-3--3-3-3-3------------------------------------|
E|--------5-5-5-6-6-6--1-1-1-1---------------------------------------------|

e|-------------------------------------------------------------------------|
B|-------------------------------------------------------------------------|
G|-3-3-3-7-7-7--------5-5-5---------7-7-7--3-3-3-3-------------------------|
D|-3-3-3-7-7-7-3-3-3--5-5-5--7-7-7--7-7-7--3-3-3-3-------------------------|
A|-1-1-1-5-5-5-3-3-3--3-3-3--7-7-7--5-5-5--1-1-1-1-------------------------|
E|-------------1-1-1---------5-5-5-----------------------------------------|

e|-------------------------------------------------------------------------|
B|------6-5------------------6-5-------------------6-5---------------------|
G|--7-7-------------------7-7----7-5-----7-5-7-7-------7-5-----------------|
D|--7-7------8-7--8-7-5-3-7-7---------7-8----7-7------------7-8------------|
A|--5-5-------------------5-5----------------5-5----------------8-7--------|
E|-------------------------------------------------------------------------|
Outro
e|-------------------------------------------------------------------------|
B|-------------------------------------------------------------------------|
G|-3--3--3--3--------------------------------------------------------------|
D|-3--3--3--3--------------------------------------------------------------|
A|-1--1--1--1--------------------------------------------------------------|
E|-------------------------------------------------------------------------|
Comments