Bayside - Existing In A Crisis Evelyn Chords & Tabs

 

Existing In A Crisis Evelyn Chords & Tabs

Bayside Chords & Tabs

Version: 1 Type: Tab 0 ratings
1 star 2 stars 3 stars 4 stars 5 stars
comments

Existing In A Crisis Evelyn Tab

Lead Intro

e|--------------------------------------------------------------|
b|----------------------------------------------------/5-3------|
g|--4h5p4---4-----------------------------4h5p4---4-------------|
d|--------7---5----------7b(8)r-5h7-5-----------7---5-----------|
a|--------------5-7\5-5---------------5h7-----------------------|
d|--------------------------------------------------------------|

Verse 1 & 2

e|--------------------------|
b|--------------------------|
g|----5---------------------|
d|--2-5-5-------3-----------|
a|--2-3-5--(3x)-3-----------|
d|--2---5-------3-----------|

[ Tab from: http://www.guitartabs.cc/tabs/b/bayside/existing_in_a_crisis_evelyn_tab.html ]
Pre Chorus
e|--------------------------------------------------------------------------|
b|--------------------------------------------------------------------------|
g|--------------------------------------------------------------------------|
d|--1-----3-1-0-1-0------2/4---4---4---4---(Then--------------then-4h5p4--4-|
a|--1---------------3-1------5---5---5---5---do the same----------------4---|
d|--1--------------------------------------thing 6x but sped up)------------| (But I thought...)

Chorus

e|--------------------------|
b|--------------------------|
g|-----3-----3---5----------|
d|--5--3--1--3-1-5----------|
a|--5--1--1--1-1-3----------|
d|--5-----1----1------------|

Verse 3

e|---------|
b|---------|
g|----5----|
d|--2-5-5--|
a|--2-3-5--|
d|--2---5--|

Break
(Then you'll have to adhere...)

e|--------------------------|
b|--------------------------|
g|-----5-7-9-11-12----------|
d|-2-5-5-7-9-11-12----------|
a|-2-5-3-5-7-9--10----------|
d|-2-5----------------------|

Okay this is all i have now but hey it's 3:30 in the morning and i don't feel like 
on it right now ill finish it later
Comments