Bayside - Devotion And Desire Chords & Tabs

 

Bayside Chords & Tabs

Version: 1 Type: Tab 0 ratings
1 star 2 stars 3 stars 4 stars 5 stars
comments

Devotion And Desire Tab

Intro
E|-------------------------------|
B|---------------6--5------------|
G|---------------------7--6------|
D|--7--5-------------------------|
A|--------8--7-------------------|
D|-------------------------------|

e|-------------------------------------------------------------------------|
B|-------------------------------------------------------------------------|
G|-7-7-7-7-7-7-7-7-7-7-7-7-7-7-7-7-----------------------------------------|
D|-7-7-7-7-7-7-7-7-7-7-7-7-7-7-7-7--8-8-8-8-8-8-8-8-8-8-8-8-8-8-8-8--------|
A|-5-5-5-5-5-5-5-5-5-5-5-5-5-5-5-5--8-8-8-8-8-8-8-8-8-8-8-8-8-8-8-8--------|
D|----------------------------------8-8-8-8-8-8-8-8-8-8-8-8-8-8-8-8--------|

e|-------------------------------------------------------------------------|
B|-------------------------------------------------------------------------|
G|-7-7-7-7-7-7-7-7------------------------------------6-6-6-6-6-6-6-6------|
D|-7-7-7-7-7-7-7-7--7-7-7-7-7-7-7-7--8-8-8-8-8-8-8-8--6-6-6-6-6-6-6-6------|
A|-5-5-5-5-5-5-5-5--7-7-7-7-7-7-7-7--8-8-8-8-8-8-8-8--4-4-4-4-4-4-4-4------|
D|------------------7-7-7-7-7-7-7-7--8-8-8-8-8-8-8-8-----------------------|



Verse
e|-------------------------------------------------------------------------|
B|-------------------------------------------------------------------------|
G|-7--7-7--7--7--7--7-7------------------------7--7-7--7-------------------|
D|-7--7-7--7--7--7--7-7--8--8-8--8--8--8--8-8--7--7-7--7--7--7-7--7--------|
A|-5--5-5--5--5--5--5-5--8--8-8--8--8--8--8-8--5--5-5--5--7--7-7--7--------|
D|-----------------------8--8-8--8--8--8--8-8-------------7--7-7--7--------|
[ Tab from: http://www.guitartabs.cc/tabs/b/bayside/devotion_and_desire_tab.html ]
e|-------------------------------------------------------------------------|
B|-------------------------------------------------------------------------|
G|------------6--6-6--6----------------------------------------------------|
D|-8--8-8--8--6--6-6--6----------------------------------------------------|
A|-8--8-8--8--4--4-4--4----------------------------------------------------|
D|-8--8-8--8---------------------------------------------------------------|


Pre-Chorus
e|-------------------------------------------------------------------------|
B|-------------------------------------------------------------------------|
G|-7-7-7-7-7-7-7-7-7-7-7-7-7-7-7-7-----------------------------------------|
D|-7-7-7-7-7-7-7-7-7-7-7-7-7-7-7-7--8-8-8-8-8-8-8-8-8-8-8-8-8-8-8-8--------|
A|-5-5-5-5-5-5-5-5-5-5-5-5-5-5-5-5--8-8-8-8-8-8-8-8-8-8-8-8-8-8-8-8--------|
D|----------------------------------8-8-8-8-8-8-8-8-8-8-8-8-8-8-8-8--------|

e|-------------------------------------------------------------------------|
B|-------------------------------------------------------------------------|
G|-7-7-7-7-7-7-7-7--------------------6-6--6--6--6--6-6--6--6-6------------|
D|-7-7-7-7-7-7-7-7--7-7-7-7-7-7-7-7---6-6--6--6--6--6-6--6--6-6------------|
A|-5-5-5-5-5-5-5-5--7-7-7-7-7-7-7-7---4-4--4--4--4--4-4--4--4-4------------|
D|------------------7-7-7-7-7-7-7-7----------------------------------------|


Chorus
e|-------------------------------------------------------------------------|
B|-------------------------------------------------------------------------|
G|-7-7-7-7-7-7-7-7-7-7-7-7-7-7-7-7-----------------------------------------|
D|-7-7-7-7-7-7-7-7-7-7-7-7-7-7-7-7--8-8-8-8-8-8-8-8-8-8-8-8-8-8-8-8--------|
A|-5-5-5-5-5-5-5-5-5-5-5-5-5-5-5-5--8-8-8-8-8-8-8-8-8-8-8-8-8-8-8-8--------|
D|----------------------------------8-8-8-8-8-8-8-8-8-8-8-8-8-8-8-8--------|

e|-------------------------------------------------------------------------|
B|-------------------------------------------------------------------------|
G|-------------------------------------------------------------------------|
D|-5-5-5-5-5-5-5-5-5-5-5-5-5-5-5-5--7-7-7-7-7-7-7-7-7-7-7-7-7-7-7-7--------|
A|-5-5-5-5-5-5-5-5-5-5-5-5-5-5-5-5--7-7-7-7-7-7-7-7-7-7-7-7-7-7-7-7--------|
D|-5-5-5-5-5-5-5-5-5-5-5-5-5-5-5-5--7-7-7-7-7-7-7-7-7-7-7-7-7-7-7-7--------|


~auvic (tu) oreo buddies* 

Bayside is a Cult

have fun
Comments