Bayside - Devotion And Desire Chords & Tabs

 

Devotion And Desire Chords & Tabs

Bayside Chords & Tabs

Version: 2 Type: Bass Tab

Devotion And Desire Bass Tab

   
BAYSIDE  DEVOTION AND DESIRE
DROP D
All the other tabs for this are awful so here's a gooden for ya'll!

INTRO

G:------------------------------------------------------------------------|
D:------------------------------------------------------------------------|
A:-5555555555555555------------------55555555--------------------44444444-|
D:------------------8888888888888888----------77777777--88888888----------|


VERSE 

G:-----------------------------------------------------------|
D:-----------------------------------------------------------| x2
A:-5-55-5-5-55-5----------------5-55-----------------44-44-4-|
D:---------------8-88-8-8-88-8---------77-77-7-8-88---------|


PRE-CHORUS 

G:----------------------------------------------------------------|
D:-----3----------3----------3------3-----------------------------|
A:-5p0--------5p0--------5p0----5p0----------44p0-4444-44p0-5555--|
D:----------------------------------------------------------------|


CHORUS 

G:---------------------------------------------------------|
D:---------------------------------------------------------|
A:---------------------------------------------------------|
D:-8888888888888888--5555555555555555--77777777777777--5-3-|

G:-----------------------------------------------------------------------------|
D:-----------------------------------------------------------------------------|
A:-5555555555555555---------------------------------------------------------5~-|
D:------------------8888888888888888--5555555555555555--77777777777777--5-3----|

BUILD UP

G:-----------|
D:-----------|
A:-55555555--|
D:-----------|

VERSE 

G:------------------------------------------------------------|
D:------------------------------------------------------------| x2
A:-5-55-5-5-55-5----------------5-55------------------44-44-4-|
D:---------------8-88-8-8-88-8---------77-77-7-8-88----------|

PRE-CHORUS 

G:------------------------------------------------------------|
D:-----3----------3----------3------3-------------------------|
A:-5p0--------5p0--------5p0----5p0----------44p0-4444-44p0---|
D:------------------------------------------------------------|



CHORUS 

G:---------------------------------------------------------------------------|
D:---------------------------------------------------------------------------|
A:-5555555555555555----------------------------------------------------------|
D:------------------8888888888888888--5555555555555555--77777777777777--5-3--|
[ Tab from: http://www.guitartabs.cc/tabs/b/bayside/devotion_and_desire_btab_ver_2.html ]
G:-----------------------------------------------------------------------------|
D:-----------------------------------------------------------------------------|
A:-5555555555555555---------------------------------------------------------5~-|
D:------------------8888888888888888--5555555555555555--77777777777777--5-3----|


GUITAR SOLO

G:------------------------------------------------------------------------|
D:------------------------------------------------------------------------| x2
A:-5555555555555555------------------55555555-----------------------------|
D:------------------8888888888888888----------77777777--5555555555555555--|


INTERLUDE

G:--------------------------------------------------------------------|
D:--------------------------------------------------------------------|
A:-5-5555-5555-5555-5555-5555-4h5-------------------------------------|
D:--------------------------------6--8-8888-8888-8888-8888-8888-7h8-9-|


G:--------------------------------------------------------------------|
D:--------------------------------------------------------------------|
A:------------------------------------------------------------------5-|
D:-7-7777-7777-7777-7777-7777-6h7-8--5-5555-5555-5555-5555-5555-4h5---|


G:---------------------------------------|
D:---------------------------------------|
A:-5-5-5-55------------------------------|
D:----------8-8-8-88--5-5-5-55--7-7-7-77-|                                         
                                             
G:------------------------------------|  ~GUITAR LICK~   G:-------|
D:------------------------------------|                  D:-------|
A:-5-5-5-55---------------------------|                  A:---5*--|
D:----------8-8-8-88--5-5-5-55--7-7-7-|                  D:-------|
 

CHORUS  

G:---------------------------------------------------------------------------|
D:---------------------------------------------------------------------------|
A:-5555555555555555----------------------------------------------------------|
D:------------------8888888888888888--5555555555555555--77777777777777--5-3--|

G:-----------------------------------------------------------------------------|
D:-----------------------------------------------------------------------------|
A:-5555555555555555---------------------------------------------------------5~-|
D:------------------8888888888888888--5555555555555555--77777777777777--5-3----|





ENDING x4

G:---------------|
D:---------------|
A:-5-55-5-5------|
D:-----------5-3-|

END ON

A:--5~--|