Bayside - Devotion And Desire Chords & Tabs

 

Devotion And Desire Chords & Tabs

Bayside Chords & Tabs

Version: 1 Type: Bass Tab

Devotion And Desire Bass Tab

Band - Bayside
Song - Devotion and Desire
Tabbed by - Paul Milne

Intro

G:---------------------------------------|
D:---------------------------------------|
A:-5(x16)--------5(x8)-------------------|4(x8)
E:--------6(x16)-------5(x8)-3(x8)-------|


Verse x2

G:------------------------------------------------------------|
D:------------------------------------------------------------|
A:-5-55-5-5-55-5---------------5-55-5-------------4-44-44-444-|
E:---------------6-66-6-6-66-6--------55-555-3-33-------------|


Pre-Chorus 1

G:------------------------------------------|
D:------------------------------------------|
A:-5(x16)-------5(x8)-------4-444-44444-555-|
E:-------6(x16)-------5(x8)-----------------|


Chorus 1

G:------------------------------|
D:------------------------------|
A:------------------------------|4(x4)
E:-6(x16)--3(x16)--5(x12)-------|

Verse x2

Pre-Chorus 2
[ Tab from: http://www.guitartabs.cc/tabs/b/bayside/devotion_and_desire_btab.html ]
G:--------------------------------------|
D:--------------------------------------|
A:-5(x16)-------5(x8)-------4-444-44444-|
E:-------6(x16)-------5(x8)-------------|


Chorus 2

G:---------------------------------------|
D:---------------------------------------|
A:5(x16)------------------------4(x4)-5~-|
E:-------6(x16)--3(x16)--5(x12)----------|


Guitar Solo x2

G:----------------------------------|
D:----------------------------------|
A:-5(x16)-------5(x8)---------------|
E:--------6(x16)------5(x8)--3(x16)-|


Interlude

G:-----------------------------|
D:-----------------------------|
A:-5(x16)---------------4(x16--|
E:-------6(x16)--3(x16)--------|

G:--------------------------------------|
D:--------------------------------------|
A:-5-5-5-55--------------------4-4-4-44-|
E:----------6-6-6-66--3-3-3-33----------|

G:-----------------------------------|
D:-----------------------------------|
A:-5-5-5-55--------------------4-4-4-|
E:----------6-6-6-66--3-3-3-33-------|

Chorus 2 x2

Ending x4

G:-----------|
D:-----------|
A:-5(16)-----|
E:-------3-5-|