Bayside - A Synonym For Aquiesce Chords & Tabs

 

A Synonym For Aquiesce Chords & Tabs

Bayside Chords & Tabs

Version: 2 Type: Tab 0 ratings
1 star 2 stars 3 stars 4 stars 5 stars
comments

A Synonym For Aquiesce Tab

   
-------------------------------------------------------------------------------
			     A synonym for aquiesce - Bayside
-------------------------------------------------------------------------------
Tabbed by:your mom
Email:isitcauseimasian@yahoo.com

Tuning:standard

Intro 4x
E|-----------------------------------------------------------------||
B|-----------------------------------------------------------------||
G|------------------------7-4-5-------4-7-4-5-4--------------------||
D|--5-x-x-x-7-x-4-x-5-x-x-7-4-5-x-x-x-2-5-4-5-4--7--5--------------||
A|--5-x-x-x-5-x-4-x-5-x-x-5-2-3-x-x-x-2-3-2-3-2--7--5--------------||
E|--3-x-x-x-5-x-2-x-3-x-x-x-x--------------------5--3--------------||

Verse "Empty fields..."
E|----------------------------------------------------------------||
B|----------------------------------------------------------------||
G|--------------------5-5-x-x-5-5-x-x--9-9-x-x-9-9-x-x------------||
D|--5-5-x-x-5-5-x-x---5-5-x-x-5-5-x-x--9-9-x-x-7-7-x-x------------||
A|--5-5-x-x-5-5-x-x---3-3-x-x-3-3-x-x--7-7-x-x-7-7-x-x------------||
E|--3-3-x-x-3-3-x-x-----------------------------------------------||

Verse (cont'd) "Reminds me that..."
E|----------------------------------------------------------------||
B|----------------------------------------------------------------||
G|---5-5-x-x-5-5s7-7-x-7-7----------------------------------------||
D|---5-5-x-x-5-5s7-7-x-7-7----------------------------------------||
A|---3-3-x-x-3-3s5-5-x-5-5----------------------------------------||
E|----------------------------------------------------------------||

Bridge Solo
E|----------------------------------------------------------------||
B|----------------------------------------------------------------||
G|---4h5p4h5p4h5p4---4h5p4h7p4h5p4--------------------------------||
D|-----------------4---------------5s7-7-7-9-7-7-5-4-5-4----------||
A|-------------------------------------------------------7-5-7----||
E|----------------------------------------------------------------||


E|---------------------------------------8~~~~~~-10---------11~~~--||
B|----8-7--------------7h8p7-------8-------------------------------||
G|--------9s11-8-8-8s9-------9-------9----------------8~~~~~-------||
D|-----------------------------------------------------------------||
A|-----------------------------------------------------------------||
E|-----------------------------------------------------------------||

end of solo
E|--3----7------------------------||
B|--------------------------------||
G|----------4--4s5~~~~~~----------||
D|--------------------------------||
A|--------------------------------||
E|--------------------------------||
[ Tab from: http://www.guitartabs.cc/tabs/b/bayside/a_synonym_for_aquiesce_tab_ver_2.html ]
Verse "If I surrender..."
E|----------------------------------------------------------------||
B|----------------------------------------------------------------||
G|--------------------5-5-x-x-5-5-x-x--9-9-x-x-9-9-x-x------------||
D|--5-5-x-x-5-5-x-x---5-5-x-x-5-5-x-x--9-9-x-x-7-7-x-x------------||
A|--5-5-x-x-5-5-x-x---3-3-x-x-3-3-x-x--7-7-x-x-7-7-x-x------------||
E|--3-3-x-x-3-3-x-x-----------------------------------------------||

Verse (cont'd) "Eyes..."
E|------------------------------------------------------------------||
B|------------------------------------------------------------------||
G|---5-5-x-x-5-5s7-7-x-7-7------------------------------------------||
D|---5-5-x-x-5-5s7-7-x-7-7------------------------------------------||
A|---3-3-x-x-3-3s5-5-x-5-5------------------------------------------||
E|------------------------------------------------------------------||

Chorus (1x after 2nd verse / 2x after 3rd verse) "Take this razor..."
E|---------------------------------------------------------------------||
B|---------------------------------------------------------------------||
G|---------------------------------------------------------------------||
D|--5-5-x-x-x-x-12-12-x-x-x-x-2-x-2-x-2~~~~~~~-------------------------||
A|--5-5-x-x-x-x-12-12-x-x-x-x-2-x-2-x-2~~~~~~~-------------------------||
E|--3-3-x-x-x-x-10-10-x-x-x-x-0-x-0-x-0~~~~~~~-------------------------||

"Everyone will know..."
E|-----------------------------------------------------------------||
B|-----------------------------------------------------------------||
G|-----------------------------------------------------------------||
D|--10-10-10-10-x-x-10-10-10-10------------------------------------||
A|--10-10-10-10-x-x-10-10-10-10------------------------------------||
E|---8--8--8--8-x-x--8--8--8--8------------------------------------||

2nd Bridge "I'll never waiste..." (3x)
E|------------------------------------------------------||
B|------------------------------------------------------||
G|-------------9----------------------------------------||
D|-7---12---9--9----------------------------------------||
A|-7---12---9--7----------------------------------------||
E|-5---10---7-------------------------------------------||

Bridge Solo
E|--------------------------------------------------------------||
B|--1~~~~~~~--1---1--1s3-3-3-3s4-4-4-4s6-6-6-6s8-8-8-8~~~~~~~~--||
G|--------------------------------------------------------------||
D|--------------------------------------------------------------||
A|--------------------------------------------------------------||
E|--------------------------------------------------------------||

Chorus2/Outro 3x
E|-------------------------------------------------------------------||
B|-------------------------------------------------------------------||
G|----------------------------9-x-x-9~~~~~~~~------------------------||
D|--5-5-x-x-x-x-12-12-x-x-x-x-9-x-x-9~~~~~~~-------------------------||
A|--5-5-x-x-x-x-12-12-x-x-x-x-7-x-x-7~~~~~~~-------------------------||
E|--3-3-x-x-x-x-10-10-x-x-x-x----------------------------------------||


E|-----------------------------------------------------------------||
B|-----------------------------------------------------------------||
G|-----------------------------------------------------------------||
D|--10-10-10-10-x-x-10-10-10-10------------------------------------||
A|--10-10-10-10-x-x-10-10-10-10------------------------------------||
E|---8--8--8--8-x-x--8--8--8--8------------------------------------||
Comments