Bayani Agbayani - Otso Otso Chords & Tabs

 

Otso Otso Chords & Tabs

Bayani Agbayani Chords & Tabs

Version: 1 Type: Tab 0 ratings
1 star 2 stars 3 stars 4 stars 5 stars
comments

Otso Otso Tab

   
OTSO OTSO
                         As recorded by Bayani Agbayani
                     (From the 2003 Album ITO ANG GUSTO MO!)

Words by Lito Camo

Music by Bayani Agbayani feat. Angelica Jones

           C                    B                    A                    G
     8 10 10 9 x x         7 9 9 8 x x          5 7 7 6 x x          3 5 5 4 x x

 Intro
  Dance Q=130
 4/4
  Gtr I
|---------|-15--15--15------|-17-17--17-----|
|---------|--------------15-|---------------|
|---------|-----------------|---------------|
|---------|-----------------|---------------|
|---------|-----------------|---------------|
|---------|-----------------|---------------|


|-17--17--17------|-15-15--15-------|
|--------------15-|-----------------|
|-----------------|-----------------|
|-----------------|-----------------|
|-----------------|-----------------|
|-----------------|-----------------|


|-15--15--15------|-17-17--17-----|
|--------------15-|---------------|
|-----------------|---------------|
|-----------------|---------------|
|-----------------|---------------|
|-----------------|---------------|


                                 Gtrs II, III
                                          <
|-(x)----22-20-19--17--|-15------------|-------||
|-----15---------------|---------14-15-|-17----||
|----------------------|---------------|-------||
|----------------------|---------------|-------||
|----------------------|---------------|-------||
|----------------------|---------------|-------||


 1st Verse
|-----||
|-----||
|-----||
|-----||
|-----||
|-----||


 Pre-Chorus
  $
  $$
  Gtr I
|-15--15--15------|-17-17--17-----|-17--17--17------|-15-15--15-----|
|--------------15-|---------------|--------------15-|---------------|
|-----------------|---------------|-----------------|---------------|
|-----------------|---------------|-----------------|---------------|
|-----------------|---------------|-----------------|---------------|
|-----------------|---------------|-----------------|---------------|


|-15--15--15------|-17-17--17-----|-(x)----22-20-19--17--|-15--15--17--19--||
|--------------15-|---------------|-----15---------------|-----------------||
|-----------------|---------------|----------------------|-----------------||
|-----------------|---------------|----------------------|-----------------||
|-----------------|---------------|----------------------|-----------------||
|-----------------|---------------|----------------------|-----------------||


 Chorus
  C                     B
  Gtr III
   |                     |
   /                     /

  Gtrs I, IV
|-20-19-20-24-(24)----|-19-17-19-22-(22)----|
|---------------------|---------------------|
|---------------------|---------------------|
|---------------------|---------------------|
|---------------------|---------------------|
|---------------------|---------------------|


  A                       B
   |                        |
   /                        /

|-17-16-17-20-(20)---19-|-(19)-17-19-24-22-(22)-15--|
|-----------------------|---------------------------|
|-----------------------|---------------------------|
|-----------------------|---------------------------|
|-----------------------|---------------------------|
|-----------------------|---------------------------|


  C                     B
   |                     |
   /                     /

|-20-19-20-24-(24)----|-19-17-19-22-(22)----|
|---------------------|---------------------|
|---------------------|---------------------|
|---------------------|---------------------|
|---------------------|---------------------|
|---------------------|---------------------|


             To Coda    To Dbl. Coda
             To Coda    To Dbl. Coda
  A
  |  |                 |
  /  /                 /

                              Gtrs II, III
                                       <
|-------20-20-19-17-|-15------------|-------||
|---15--------------|---------14-15-|-17----||
|-------------------|---------------|-------||
|-------------------|---------------|-------||
|-------------------|---------------|-------||
|-------------------|---------------|-------||


 2nd Verse
D.S.
|------||
|------||
|------||
|------||
|------||
|------||


 Chorus
  &
                    C                     B
  Gtr III
                     |                     |
                     /                     /

  Gtr I
|-15--15--17--19--|-20-19-20-24-(24)----|-19-17-19-22-(22)----|
|-----------------|---------------------|---------------------|
|-----------------|---------------------|---------------------|
|-----------------|---------------------|---------------------|
|-----------------|---------------------|---------------------|
|-----------------|---------------------|---------------------|


  A                       B
   |                        |
   /                        /

|-17-16-17-20-(20)---19-|-(19)-17-19-24-22-(22)-15--|
|-----------------------|---------------------------|
|-----------------------|---------------------------|
|-----------------------|---------------------------|
|-----------------------|---------------------------|
|-----------------------|---------------------------|


  C                     B
   |                     |
   /                     /

|-20-19-20-24-(24)----|-19-17-19-22-(22)----|
|---------------------|---------------------|
|---------------------|---------------------|
|---------------------|---------------------|
|---------------------|---------------------|
|---------------------|---------------------|


  A
  |  |                 |
  /  /                 /

                                       <
|-------20-20-19-17-|-15------------|-------||
|---15--------------|---------14-15-|-17----||
|-------------------|---------------|-------||
|-------------------|---------------|-------||
|-------------------|---------------|-------||
|-------------------|---------------|-------||


 Breakdown
|-----||
|-----||
|-----||
|-----||
|-----||
|-----||


 3rd Verse
D.S.S.
|------||
|------||
|------||
|------||
|------||
|------||

[ Tab from: http://www.guitartabs.cc/tabs/b/bayani_agbayani/otso_otso_tab.html ]
                    Chorus (Slower)
  Slower Q=85        Q=90
  &&
                     C                     B
                     Gtr III
                      |                     |
                      /                     /

      Gtr I
|-----15--17--19--||-20-19-20-24-(24)----|-19-17-19-22-(22)----|
|-17--------------||---------------------|---------------------|
|-----------------||---------------------|---------------------|
|-----------------||---------------------|---------------------|
|-----------------||---------------------|---------------------|
|-----------------||---------------------|---------------------|


  A                       B
   |                        |
   /                        /

|-17-16-17-20-(20)---19-|-(19)-17-19-24-22-(22)-15--|
|-----------------------|---------------------------|
|-----------------------|---------------------------|
|-----------------------|---------------------------|
|-----------------------|---------------------------|
|-----------------------|---------------------------|


                                            F
  C                     B
   |                     |
   /                     /

|-20-19-20-24-(24)----|-19-17-19-22-(22)----|
|---------------------|---------------------|
|---------------------|---------------------|
|---------------------|---------------------|
|---------------------|---------------------|
|---------------------|---------------------|


 aster Q=155
  A                   G
  |  |                 |
  /  /                 /

|-------20-20-19-17-|-15--15--17--19--||
|---15--------------|-----------------||
|-------------------|-----------------||
|-------------------|-----------------||
|-------------------|-----------------||
|-------------------|-----------------||


 Chorus (Faster)
  Double-Time Q=180
  C                     B
   |                     |
   /                     /

|-20-19-20-24-(24)----|-19-17-19-22-(22)----|
|---------------------|---------------------|
|---------------------|---------------------|
|---------------------|---------------------|
|---------------------|---------------------|
|---------------------|---------------------|


  A                       B
   |                        |
   /                        /

|-17-16-17-20-(20)---19-|-(19)-17-19-24-22-(22)-15--|
|-----------------------|---------------------------|
|-----------------------|---------------------------|
|-----------------------|---------------------------|
|-----------------------|---------------------------|
|-----------------------|---------------------------|


                                            B
  C                     B
   |                     |
   /                     /

|-20-19-20-24-(24)----|-19-17-19-22-(22)----|
|---------------------|---------------------|
|---------------------|---------------------|
|---------------------|---------------------|
|---------------------|---------------------|
|---------------------|---------------------|


 ack To Normal Q=130
  A                   G
  |  |                 |
  /  /                 /

|-------20-20-19-17-|-15--15--17--19--|
|---15--------------|-----------------|
|-------------------|-----------------|
|-------------------|-----------------|
|-------------------|-----------------|
|-------------------|-----------------|


 Chorus
  C                     B
   |                     |
   /                     /

|-20-19-20-24-(24)----|-19-17-19-22-(22)----|
|---------------------|---------------------|
|---------------------|---------------------|
|---------------------|---------------------|
|---------------------|---------------------|
|---------------------|---------------------|


  A                       B
   |                        |
   /                        /

|-17-16-17-20-(20)---19-|-(19)-17-19-24-22-(22)-15--|
|-----------------------|---------------------------|
|-----------------------|---------------------------|
|-----------------------|---------------------------|
|-----------------------|---------------------------|
|-----------------------|---------------------------|


  C                     B                     A                   G
   |                     |                    |  |                 |
   /                     /                    /  /                 /

|-20-19-20-24-(24)----|-19-17-19-22-(22)----|-------20-20-19-17-|-15--------||
|---------------------|---------------------|---15--------------|-----------||
|---------------------|---------------------|-------------------|-----------||
|---------------------|---------------------|-------------------|-----------||
|---------------------|---------------------|-------------------|-----------||
|---------------------|---------------------|-------------------|-----------||


 Coda
|-------20-20-19-17-|-15--------|-------------------|-----|
|---15--------------|-----------|-17--17--19--19-20-|-----|
|-------------------|-----------|-------------------|-----|
|-------------------|-----------|-------------------|-----|
|-------------------|-----------|-------------------|-----|
|-------------------|-----------|-------------------|-----|


                                Gtrs I, II, III
|-------------------|---------|-------------------|-----*|
|-17--17--19--19-20-|---------|-17--17--22--19-20-|-----*|
|-------------------|---------|-------------------|-----*|
|-------------------|---------|-------------------|-----*|
|-------------------|---------|-------------------|-----*|
|-------------------|---------|-------------------|-----*|


Tablature Legend
----------------
 h   - hammer-on
 p   - pull-off
 b   - bend
 pb  - pre-bend
 r   - bend release (if no number after the r, then release immediately)
 /  - slide into or out of (from/to "nowhere")
 s   - legato slide
 S   - shift slide
  - natural harmonic
[n]  - artificial harmonic
n(n) - tapped harmonic
 ~   - vibrato
 tr  - trill
 T   - tap
 TP  - trem. picking
 PM  - palm muting
n/  - tremolo bar dip; n = amount to dip
 n  - tremolo bar down
 n/  - tremolo bar up
/n  - tremolo bar inverted dip
 =   - hold bend; also acts as connecting device for hammers/pulls
   - volume swell (louder/softer)
 x   - on rhythm slash represents muted slash
 o   - on rhythm slash represents single note slash

Misc Legend
-----------
 |  - bar
||  - double bar
||o - repeat start
o|| - repeat end
*|  - double bar (ending)
 :  - bar (freetime)
 $  - Segno
 &  - Coda
Tempo markers -  = BPM(8/16=s8/s16), where s8 = swing 8ths, s16 = swing 16ths
Comments