Bauhaus - Of Lillies And Remains Chords & Tabs

 

Of Lillies And Remains Chords & Tabs

Bauhaus Chords & Tabs

Version: 1 Type: Bass Tab 0 ratings
1 star 2 stars 3 stars 4 stars 5 stars
comments

Of Lillies And Remains Bass Tab

   
-------------------------------------------------------------------------------
                      OF LILLIES AND REMAINS - BAUHAUS
-------------------------------------------------------------------------------
Tabbed by: Myself
E-mail: h.abualtin@yahoo.com

Tuning: Standard

The other bass tab isn't correct (too high and missing parts). Finger pick 
instead of using a plectrum. Enjoy!


Main part you play for most of the song (this gets repeated over and over
until you hit a variation):

G|-----------------------------------|
D|---------------2---0-0-------------|
A|---0-0-2-2-3-3---------3-3-2-2-----|
E|-------------------------------3---|


After Peter begins singing, there's this small lick (around 1:19 in):

G|-------------------7-7-6-6-5-5-----|
D|---------------2-------------------|
A|---0-0-2-2-3-3---------------------|
E|-------------------------------3---|


Then back to the original:

G|-----------------------------------|
D|---------------2---0-0-------------|
A|---0-0-2-2-3-3---------3-3-2-2-----|
E|-------------------------------3---|


Then another change as you come back down the progression (about 1:53 in):

G|-----------------------------------------------------|
D|---------------2---0-0-------------------------------|
A|---0-0-2-2-3-3---------3-3-2-2/---2222222222222222---|
E|-----------------------------------------------------|


Then back to the original again:
[ Tab from: http://www.guitartabs.cc/tabs/b/bauhaus/of_lillies_and_remains_btab.html ]
G|-----------------------------------|
D|---------------2---0-0-------------|
A|---0-0-2-2-3-3---------3-3-2-2-----|
E|-------------------------------3---|


Now another change (about 2:13 in):

G|-------------------7-7-6-6-5-5-3/---| You barely hit the 3rd fret
D|---------------2--------------------| before doing the slide
A|---0-0-2-2-3-3----------------------|
E|------------------------------------|


Then back to the original again:

G|-----------------------------------|
D|---------------2---0-0-------------|
A|---0-0-2-2-3-3---------3-3-2-2-----|
E|-------------------------------3---|


Yet another change comes (about 2:47 in):

G|-----------------------------------|
D|---------------2---0-0-------------|
A|---0-0-2-2-3-3---------3-3-2/------|
E|-----------------------------------|


Then back to the original again:

G|-----------------------------------|
D|---------------2---0-0-------------|
A|---0-0-2-2-3-3---------3-3-2-2-----|
E|-------------------------------3---|


Repeat this change again (about 3:00 in):

G|-----------------------------------|
D|---------------2---0-0-------------|
A|---0-0-2-2-3-3---------3-3-2/------|
E|-----------------------------------|


Then back to the original again and fade out:

G|-----------------------------------|
D|---------------2---0-0-------------|
A|---0-0-2-2-3-3---------3-3-2-2-----|
E|-------------------------------3---|



| /  slide up
| \  slide down
| h  hammer-on
| p  pull-off
| ~  vibrato
| +  harmonic
| x  Mute note
===============================================================================
Comments