Bauhaus - In The Night Chords & Tabs

 

In The Night Chords & Tabs

Bauhaus Chords & Tabs

Version: 1 Type: Bass Tab 0 ratings
1 star 2 stars 3 stars 4 stars 5 stars
comments

In The Night Bass Tab

   
-------------------------------------------------------------------------------
			     In The Night - Bauhaus
-------------------------------------------------------------------------------

Tabbed By : sharvie
Tuning: EADG

This is the bass tab for In The Night by Bauhaus. Bauhaus features some excellent 
so if you haven't you should really give them a listen. The timing for this song can be pretty 
and it's hard to tab the timing out accurately, but if you listen to the song you can work it out.

G|------------|----------------|
D|------------|----------------|
A|-------2----|---------2-1-0--| x8
E|--0-0----0--|--3-2-1---------|

G|-------------|-------------------|
D|-------------|-------------------|
A|--3-3-3-4----|-------------------|
E|----------3--|--x-x-x-x-x-x-x-x--|

G|---------------|---------------|
D|---------------|---------------|
A|---------------|---------------|
E|--0-0-----0-0--|--0-0-----0-0--|

G|---------------|-------------------|
D|---------------|-------------------|
A|--3-3-2-3-2----|-------------------|
E|------------3--|--x-x-x-x-x-x-x-x--|

G|------------|----------------|
D|------------|----------------|
A|-------2----|---------2-1-0--| x5
E|--0-0----0--|--3-2-1---------|
[ Tab from: http://www.guitartabs.cc/tabs/b/bauhaus/in_the_night_btab.html ]
G|---------------|-------------------|
D|---------------|-------------------|
A|--3-3-2-3-2----|----------2-3-2----|
E|------------3--|--x-x-x-x-------3--|

G|---------------|----------------|
D|---------------|----------------|
A|---------------|----------------|
E|--0-0-----0-0--|--0-0-----0-0-5-|

[Faster Tempo]

G|-------------------|-----------------------|
D|-------------------|-----------------------|
A|--3-3-3-3---3-3-3--|--0-0-0-0-0---0-0-0-0--| x2
E|-------------------|-----------------------|

G|------------|------------|
D|------------|------------|
A|------------|------------| x6
E|--00000000--|--00000000--|

G|-------------------|-----------------------|
D|-------------------|-----------------------|
A|--3-3-3-3---3-3-3--|--0-0-0-0-0---0-0-0-0--| x2
E|-------------------|-----------------------|

G|------------|------------|
D|------------|------------|
A|------------|------------| x2
E|--00000000--|--00000000--|

[BREAK]

G|-------------------|-----------------------|
D|-------------------|-----------------------|
A|--3-3-3-3---3-3-3--|--0-0-0-0-0---0-0-0-0--| x4
E|-------------------|-----------------------|

| /  slide up
| \  slide down
| h  hammer-on
| p  pull-off
| ~  vibrato
| +  harmonic
| x  Mute note
===============================================================================
Comments