Bauhaus - Dark Entries Chords & Tabs

 

Dark Entries Chords & Tabs

Bauhaus Chords & Tabs

Version: 2 Type: Tab 0 ratings
1 star 2 stars 3 stars 4 stars 5 stars
comments

Dark Entries Tab

   
Song: Dark Entries
Artist: Bauhaus
Album: In The Flat Field
Tabbed By: Sean Cahill
kungfusoda@gmail.com


Part One
e|--------------------------------------|
B|--------------------------------------|  
G|--------------------------------------|
D|-77777777-66666666-55555555-44444444--|
A|-xxxxxxxx-xxxxxxxx-xxxxxxxx-xxxxxxxx--|
E|-55555555-44444444-33333333-22222222--|

[ Tab from: http://www.guitartabs.cc/tabs/b/bauhaus/dark_entries_tab_ver_2.html ]
Part Two
e|----------------------------------------------------------------------|
B|----------------------------------------------------------------------|  
G|----------------------------------------------------------------------|
D|-1414141414141414-1313131313131313-1616161616161616-1111111111111111--|
A|-xxxxxxxxxxxxxxxx-xxxxxxxxxxxxxxxx-xxxxxxxxxxxxxxxx-xxxxxxxxxxxxxxx---|
E|-1212121212121212-1111111111111111-1414141414141414-9-9-9-9-9-9-9-9---|

Part Three:
e|-----0------0------0------0--|
B|-----0------0------0------0--|  
G|-----------------------------|
D|-777-7--666-6--555-5--444-4--|
A|-xxx-x--xxx-x--xxx-x--xxx-x--|
E|-555-5--444-4--333-3--222-2--|

When you hit the open e/B do an upstroke so you hit them first.


Part Four:
e|-----------------------------|
B|-----------------------------|  
G|-999999-99-10101010-12121212-|
D|-777777-77-77777777-10101010-|
A|-777777-77-77777777-10101010-|
E|-----------------------------|
This comes right before the "Dark Entries" parts.

Comments