Bauhaus - Adrenalin Chords & Tabs

 

Adrenalin Chords & Tabs

Bauhaus Chords & Tabs

Version: 1 Type: Bass Tab 0 ratings
1 star 2 stars 3 stars 4 stars 5 stars
comments

Adrenalin Bass Tab

   
-------------------------------------------------------------------------------
                                ADRENALIN - BAUHAUS
-------------------------------------------------------------------------------
Tabbed by: Myself
E-mail: h.abualtin@yahoo.com

Tuning: Standard

Adrenalin off of Go Away White. Pretty fun and easy overall, though tiring on 
the hand. A quick playing note:

When you see something like this:

G|----------------|
D|----------------|
A|----------------|
E|---555-75-555---|

That 75 turn is very fast. I'm only separating it to make it easier to see
and count the notes around it, so don't pause around here as if there were
a break between the first three notes, those middle two, and the last three
in the series. The song is pretty repetitive, so once you get the general
structure down, you won't have to read this line by line (there are subtle
spots where one turn is added or removed, hence why I didn't abbreviate
the tab by saying to repeat sections a certain number of times). Enjoy!


G|-----------------------------------------------------------------------|
D|-----------------------------------------------------------------------|
A|-----------------------------------------------------------------------|
E|---555-75-555-333-53-333-555-75-555-333-53-333-555-75-555-333-53-333---|

G|------------------------------------------------------------------------|
D|------------------------------------------------------------------------|
A|--------------------------555-75-555-333-53-333-555-75-555-333-53-333---|
E|---555-75-555-333-53-333------------------------------------------------|

G|-------------------------------------------------|
D|-------------------------------------------------|
A|-------------------------------------------------|
E|---555-75-555-333-53-333-555-75-555-333-53-333---|

G|-------------------------------------------------|
D|-------------------------------------------------|
A|-------------------------------------------------|
E|---111111111111-1--3--555-75-555-75-555-75-555---|

G|-------------------------------------------------|
D|-------------------------------------------------|
A|-------------------------------------------------|
E|---111111111111-1--3--555-75-555-75-555-75-555---|

     "It'll take you to the top..."
G|----------------------------------------------------|
D|----------------------------------------------------|
A|----------------------------------------------------|
E|---75-555-75-555-333-53-333-555-75-555-333-53-333---|

    "Shoot up needles..."                         "Shift, crank, pull..."
G|------------------------------------------------------------------------|
D|------------------------------------------------------------------------|
A|------------------------------------------------555-75-555-333-53-333---|
E|---555-75-555-333-53-333-555-75-555-333-53-333--------------------------|

G|------------------------------------------------------------------------|
D|------------------------------------------------------------------------|
A|---555-75-555-333-53-333------------------------------------------------|
E|--------------------------555-75-555-333-53-333-555-75-555-333-53-333---|

G|-------------------------------------------------|
D|-------------------------------------------------|
A|-------------------------------------------------|
E|---111111111111-1--3--555-75-555-75-555-75-555---|

G|-------------------------------------------------|
D|-------------------------------------------------|
A|-------------------------------------------------|
E|---111111111111-1--3--555-75-555-75-555-75-555---|

     "It'll put you through..."
G|----------------------------------------------------|
D|----------------------------------------------------|
A|----------------------------------------------------|
E|---75-555-75-555-333-53-333-555-75-555-333-53-333---|

    "Push you to the limit..."                    "Shift, crank, pull..."
G|------------------------------------------------------------------------|
D|------------------------------------------------------------------------|
A|------------------------------------------------555-75-555-333-53-333---|
E|---555-75-555-333-53-333-555-75-555-333-53-333--------------------------|

G|------------------------------------------------------------------------|
D|------------------------------------------------------------------------|
A|---555-75-555-333-53-333------------------------------------------------|
E|--------------------------555-75-555-333-53-333-555-75-555-333-53-333---|

    "aaaaaaaaaa-drenalin..."
G|-------------------------------------------------|
D|-------------------------------------------------|
A|-------------------------------------------------|
E|---111111111111-1--3--555-75-555-75-555-75-555---|
[ Tab from: http://www.guitartabs.cc/tabs/b/bauhaus/adrenalin_btab.html ]
G|-------------------------------------------------|
D|-------------------------------------------------|
A|-------------------------------------------------|
E|---111111111111-1--3--555-75-555-75-555-75-555---|

G|----------------------------------------------------|
D|----------------------------------------------------|
A|----------------------------------------------------|
E|---75-555-75-555-333-53-333-555-75-555-333-53-333---|

G|-------------------------------------------------|
D|-------------------------------------------------|
A|-------------------------------------------------|
E|---555-75-555-333-53-333-555-75-555-333-53-333---|

     "It'll save the life..."
G|-------------------------------------------------|
D|-------------------------------------------------|
A|-------------------------------------------------|
E|---555-75-555-333-53-333-555-75-555-333-53-333---|

    "Counteract the poision..."                    "Shift, crank, pull..."
G|------------------------------------------------------------------------|
D|------------------------------------------------------------------------|
A|------------------------------------------------555-75-555-333-53-333---|
E|---555-75-555-333-53-333-555-75-555-333-53-333--------------------------|

G|------------------------------------------------------------------------|
D|------------------------------------------------------------------------|
A|---555-75-555-333-53-333------------------------------------------------|
E|--------------------------555-75-555-333-53-333-555-75-555-333-53-333---|

    "aaaaaaaaaa-drenalin..."
G|-------------------------------------------------|
D|-------------------------------------------------|
A|-------------------------------------------------|
E|---111111111111-1--3--555-75-555-75-555-75-555---|

G|-------------------------------------------------|
D|-------------------------------------------------|
A|-------------------------------------------------|
E|---111111111111-1--3--555-75-555-75-555-75-555---|

G|-------------------------------------------------|
D|-------------------------------------------------|
A|-------------------------------------------------|
E|---111111111111-1--3--555-75-555-75-555-75-555---|

G|-------------------------------------------------|
D|-------------------------------------------------|
A|-------------------------------------------------|
E|---111111111111-1--3--555-75-555-75-555-75-555---|

     "Pushing flesh and marrow..."
G|----------------------------------------------------|
D|----------------------------------------------------|
A|----------------------------------------------------|
E|---75-555-75-555-333-53-333-555-75-555-333-53-333---|

    "Boosting up the cell count..."               "Adrenalin..."
G|------------------------------------------------------------------------|
D|------------------------------------------------------------------------|
A|------------------------------------------------555-75-555-333-53-333---|
E|---555-75-555-333-53-333-555-75-555-333-53-333--------------------------|

G|------------------------------------------------------------------------|
D|------------------------------------------------------------------------|
A|---555-75-555-333-53-333------------------------------------------------|
E|--------------------------555-75-555-333-53-333-555-75-555-333-53-333---|

    "aaaaaaaaaa-drenalin..."
G|-------------------------------------------------|
D|-------------------------------------------------|
A|-------------------------------------------------|
E|---111111111111-1--3--555-75-555-75-555-75-555---|

G|-------------------------------------------------|
D|-------------------------------------------------|
A|-------------------------------------------------|
E|---111111111111-1--3--555-75-555-75-555-75-555---|

G|-------------------------------------------------|
D|-------------------------------------------------|
A|-------------------------------------------------|
E|---111111111111-1--3--555-75-555-75-555-75-555---|

G|-------------------------------------------------|
D|-------------------------------------------------|
A|-------------------------------------------------|
E|---111111111111-1--3--555-75-555-75-555-75-555---|

G|-------------------------------------------------|
D|-------------------------------------------------|
A|-------------------------------------------------|
E|---111111111111-1--3--555-75-555-75-555-75-555---|

G|--------------------------|
D|--------------------------|
A|--------------------------|
E|---111111111111-1--3--5---| (let last note ring out as song finishes)

| /  slide up
| \  slide down
| h  hammer-on
| p  pull-off
| ~  vibrato
| +  harmonic
| x  Mute note
===============================================================================
Comments