Bathory - Woman Of Dark Desires Chords & Tabs

 

Woman Of Dark Desires Chords & Tabs

Bathory Chords & Tabs

Version: 1 Type: Tab 0 ratings
1 star 2 stars 3 stars 4 stars 5 stars
comments

Woman Of Dark Desires Tab

-------------------------------------------------------------------------------
			     Bathory - Woman of dark desires
-------------------------------------------------------------------------------
Tabbed by:skin_guy13
Email:stupid_fukin_kid@yahoo.com

Tuning:standard

riff 1
e|---------------------------------------------------------------------------|
B|---------------------------------------------------------------------------|
G|---------------------------------------------------------------------------|
D|---------------------------------------------------------------------------|
A|---------------------------------------------------------------------------|
E|-0-2-0-3-0-2/3-------------------------------------------------------------|

riff 2
e|---------------------------------------------------------------------------|
B|---------------------------------------------------------------------------|
G|---------------------------------------------------------------------------|
D|---------------------------------------------------------------------------|
A|-8-8/7-7/5-----------------------------------------------------------------|
E|-8-6/5-5/4-----------------------------------------------------------------|

riff 3
e|---------------------------------------------------------------------------|
B|---------------------------------------------------------------------------|
G|---------------------------------------------------------------------------|
D|---4-----3333--------------------------------------------------------------|
A|-2-2-4-5-1111--------------------------------------------------------------|
E|-0---2-3-------------------------------------------------------------------|
[ Tab from: http://www.guitartabs.cc/tabs/b/bathory/woman_of_dark_desires_tab.html ]
riff 4
e|---------------------------------------------------------------------------|
B|---------------------------------------------------------------------------|
G|---------------------------------------------------------------------------|
D|---------------------------------------------------------------------------|
A|-2-4/5-5/4-4444------------------------------------------------------------|
E|-0-2/3-3/2-2222------------------------------------------------------------|

riff 5
e|---------------------------------------------------------------------------|
B|---------------------------------------------------------------------------|
G|---------------------------------------------------------------------------|
D|---------------------------------------------------------------------------|
A|-2-5/6-6/5-5555------------------------------------------------------------|
E|-0-3/4-4/3-3333------------------------------------------------------------|

riff 6
e|---------------------------------------------------------------------------|
B|---------------------------------------------------------------------------|
G|---------------------------------------------------------------------------|
D|-9---11--------------------------------------------------------------------|
A|-7-8--9-10-----------------------------------------------------------------|
E|---6-----8-----------------------------------------------------------------|

riff 7 
e|---------------------------------------------------------------------------|
B|---------------------------------------------------------------------------|
G|---------------------------------------------------------------------------|
D|---------------------------------------------------------------------------|
A|-2-2-----------------------------------------------------------------------|
E|-0-0-----------------------------------------------------------------------|

riff 1       24x
riff 2        1x
riff 3        4x
riff 1       24x 
riff 2        1x
riff 3        4x
riff 4        2x
riff 5        2x
riff 4        2x
riff 5        2x
riff 6        4x
riff 1       40x
riff 2        1x
riff 3        8x
riff 7        1x
| /  slide up
| \  slide down



==========================================================================
Comments