Bathory - Under The Runes Chords & Tabs

 

Under The Runes Chords & Tabs

Bathory Chords & Tabs

Version: 1 Type: Tab 0 ratings
1 star 2 stars 3 stars 4 stars 5 stars
comments

Under The Runes Tab

   
                          BATHORY-UNDER THE RUNES
                          From the Album TWILIGHT OF THE GODS
                          Copyright 1991 Black Mark Records
                          Version 1.0 - October 1998



Transcribed by: Zack Demianczyk

/     slide up
\     slide down
p     pull on
h     hammer on
~     vibrato
pm    .



Tuning: Drop "D" (D,A,D,G,B,E)

[ Tab from: http://www.guitartabs.cc/tabs/b/bathory/under_the_runes_tab.html ]
|---------3------1------------3------3-----------3------1-----------3------3-|
|-----------1----3--------------3----3-------------1----3-------------3----3-|
|------2------2--3---------5------5--4--------2------2--3--------5------5--3-|
|----0-------------------0------------------0------------------0-------------|
|----------------------------------------------------------------------------|
|-0-------------------0------------------0------------------0----------------|


|---------5------6------------7------------------5------6-----------7--------|
|-----------6----6--------------8----8-------------6----6-------------8----8-|
|------7------7--7---------7------7--7--------7------7--7--------5------7--4-|
|----0-------------------0-----------o------0------------------0-------------|
|----------------------------------------------------------------------------|
|-0-------------------0------------------0------------------0----------------|
Comments