Basca - Hijos De Chords & Tabs

 

Hijos De Chords & Tabs

Basca Chords & Tabs

Version: 1 Type: Bass Tab 0 ratings
1 star 2 stars 3 stars 4 stars 5 stars
comments

Hijos De Bass Tab

#-----------------------------------------------------------------------------#
#-------------------BASCA-------------ECUADORIAN BAND---------------------- --#
#-----------------------------------------------------------------------------#

Author/Artist: Basca
Title: Hijos de...
Album: Ecuador Subterráneo - Compilation Cd
Transcribed by: Patricio Moreno
Email: pachuko@ecuarock.com


G-|-----------------|-------------|-
D-|---------3-2-0---|-------------|-
A-|-0-2-3-0-------3-|--0----------|-
E-|-----------------|-------------|-
 intro          x12                                                           


G-|-------------------------------------------------|-
D-|-------------------------------------------------|-  NO BASS
A-|-------------------------------------------------|-  NO HAY BAJO	
E-|-------------------------------------------------|-
  "Hijos de... guerrillas...................sociedad"                         


G-|------------------------------------------------------|-
D-|------------------------------------------------------|-
A-|----------2h3\---------2h3\---------2h3\---------2h3\-|-
E-|-5-5-5-5-5----5-5-5-5-5----3-3-3-3-3----2-2-2-2-2-----|-
  "Compartir...                                                               


G-|---------------------------------------------------------------|-
D-|---------------------------------------------------------------|-
A-|----------2h3\---------2h3\---------2h3\---------2h3\----------|-
E-|-5-5-5-5-5----5-5-5-5-5----3-3-3-3-3----2-2-2-2-2----0-0-0-0-0-|-
  "y Jesus...                                                                 


G-|-----------------------------------------------------------------|-
D-|-----------------------------------------------------------------|-
A-|-0-2-3-0-2-3-0-3-0-2-3-0-2-3-0-3---------------------------------|-
E-|---------------------------------3-5-6-3-5-6-3-6-2-4-5-2-4-5-2-5-|-
   "Jeeeeeee...           x2                                                  


G-|---------------------------------------------------------|-
D-|---------------------------------------------------------|-
A-|---------------------------------------------------------|-
E-|-5-5-5-5-5-5-5-5-5-5-5-5-5-5-3-3-3-3-3-3-3-2-2-2-2-2-2-2-|-
   "Hijos de..             x2                                                 


G-|-------------------------------------------------------------------|-
D-|-------------------------------------------------------------------|-
A-|-------------------------------------------------------------------|-
E-|-5-5-5-5-5-5-5-5-2-2-2-2-2-2-2-2-3-3-3-3-3-3-3-3-6-5-3-6-5-3-6-5-3-|-
   "Salvate mientras puedas...                             x4                 

[ Tab from: http://www.guitartabs.cc/tabs/b/basca/hijos_de_btab.html ]
G-|-----------------------------------------------------------------|-
D-|-----------------------------------------------------------------|-
A-|-0-2-3-0-2-3-0-3-0-2-3-0-2-3-0-3---------------------------------|-
E-|---------------------------------3-5-6-3-5-6-3-6-2-4-5-2-4-5-2-5-|-
  solo                       x4                                               


G-|-----------------------------------------------|-
D-|-----------------------------------------------|-
A-|-----------------------------------------------|-
E-|-5-5-5-5-5---5-5-5-5-5---3-3-3-3-3---2-2-2-2-2-|-
   despues de la cuarta vez (con bateria)                                     


G-|-------------------------------------------------------------|-
D-|-------------------------------------------------------------|-
A-|-------------------------------------------------------------|-
E-|-5-5-5-5-5---5-5-5-5-5---3-3-3-3-3---2-2-2-2-2---2-2--2--2-2-|-

                                                                              
G-|------------------------------------------------------|-
D-|------------------------------------------------------|-
A-|----------2h3\---------2h3\---------2h3\---------2h3\-|-
E-|-5-5-5-5-5----5-5-5-5-5----3-3-3-3-3----2-2-2-2-2-----|-
  "Llanto oir, represión...                                             

G-|--------------------------------------------------------------|-
D-|--------------------------------------------------------------|-
A-|----------2h3\---------2h3\---------2h3\---------2h3\---------|-
E-|-5-5-5-5-5----5-5-5-5-5----3-3-3-3-3----2-2-2-2-2----0-0-0-0-0|-
  "Viejos y mendigos...                                             

G-|-----------------------------------------------------------------|-
D-|-----------------------------------------------------------------|-
A-|-0-2-3-0-2-3-0-3-0-2-3-0-2-3-0-3---------------------------------|-
E-|---------------------------------3-5-6-3-5-6-3-6-2-4-5-2-4-5-2-5-|-
   "Jeeeeeee...           x2                                          

G-|-------------------------------------------------------------------|-
D-|-------------------------------------------------------------------|-
A-|-------------------------------------------------------------------|-
E-|-5-5-5-5-5-5-5-5-5-5-5-5-3-3-3-3-3-3-3-2-2-2-2-2-2-2---2-2--2--2-2-|-
   "Botado en un rincón...             x2                                 

G-|-------------------------------------------------------------------|-
D-|-------------------------------------------------------------------|-
A-|-------------------------------------------------------------------|-
E-|-5-5-5-5-5-5-5-5-2-2-2-2-2-2-2-2-3-3-3-3-3-3-3-3-6-5-3-6-5-3-6-5-3-|-
   "Salvate mientras puedas...                             x3           

G-|-----------------------------------------------------------------|-
D-|-----------------------------------------------------------------|-
A-|-----------------------------------------------------------------|-
E-|-5-5-5-5-5-5-5-5-2-2-2-2-2-2-2-2-3-3-3-3-3-3-3-3-6-2-2-3-3-2-3-5-|-
  luego


G-|------------|-
D-|------------|-
A-|------------|-
  end

very good song. enjoy
Comments