Bart Howard - Fly Me To The Moon Chords & Tabs

 

Fly Me To The Moon Chords & Tabs

Bart Howard Chords & Tabs

Version: 1 Type: Tab 0 ratings
1 star 2 stars 3 stars 4 stars 5 stars
comments

Fly Me To The Moon Tab

                              Fly Me To Te Moon                            

                                                       Bart Howard     

  
E||--8------7--5----------|-----------5----8----|--7------5--------|
B||--5------------8----6--|--------8------------|--6---------8----6|
G||--5-----------------5--|---------------------|--7---------------|
D||--5-----------------7--|---------------------|--5---------------|
A||--0-----------------5--|---------------------|------------------|
E||-----------------------|---------------------|------------------|


                                                                   
--------------------|--5-------------------|-----------------5----|
--5--------5--------|--5------8--6----5----|---------5--6---------|
--4--------3--------|--5-------------------|--7-------------------|
--5--------5--------|--7-------------------|--7-------------------|
--3--------3--------|--8-------------------|----------------------|
--------------------|----------------------|--7-------------------|


                                                                    
--4--------------------|---------------------|-----5------5--------|
--5------6--5----------|---------------------|--3------------------|
--7--------------7--5--|--------------5------|--5------------------|
-----------------------|--------------6------|--3------------------|
-----------------------|--0--------0---------|--5------------------|
--0--------------------|---------------------|---------------------|


                                                                 
--5----8----7--------|---------------------|--------------------|
--6---------6--------|--8------------------|--6-----------------|
--5---------7--------|--7------------------|--6------------4----|
--7---------5--------|--5------------------|--5-----------------|
--5------------------|--7------------------|--0-----------------|
---------------------|-----------0----6----|--------------------|


                                                                  
---------------------|------------5----3----|--------------------|
-------6----6--------|----------------------|--6----5------------|
--5------------------|-------4--------------|-------4------------|
--3------------------|-------3--------------|-------5------------|
--5------------------|----------------------|-------3------------|
---------------------|--3-------------------|--------------------|


                                                                     
----------------------|--8------7--5----------|-----------5----8--|
------------5----6----|--5------------8----6--|--------8----------|
-----7------7---------|--5-----------------5--|-------------------|
-----7------6---------|--5-----------------7--|-------------------|
------------7---------|--0-----------------5--|-------------------|
--7-------------------|-----------------------|-------------------|


                                                                   
--7------5------------|--------------------|--5-------------------|
--6---------8----6----|--5--------5--------|--5------8--6----5----|
--7-------------------|--4--------3--------|--5-------------------|
--5-------------------|--5--------5--------|--7-------------------|
----------------------|--3--------3--------|--8-------------------|
----------------------|--------------------|----------------------|

                                                                     
-----------------5----|--4--------------------|-------------------|
---------5--6---------|--5------6--5----------|-------------------|
--7-------------------|--7--------------7--5--|--------------6----|
--7-------------------|-----------------------|--------------5----|
----------------------|-----------------------|--0--------0-------|
--7-------------------|--0--------------------|-------------------|


-----5------5--------|-------8----7--------|--------------------|
--3------------------|------------6--------|--8-----------------|
--5------------------|------------7--------|--7-----------------|
--3------------------|--0---------5--------|--8-----------------|
--5------------------|---------------------|--7-----------------|
---------------------|---------------------|---------------6----|


--------------------|--5------------------|---------------------|
--8------------9----|--6------------------|-----1------3--------|
--6-----------------|--5--5----5----------|-----2---------------|
--8-----------------|--0------------------|-----3---------------|
--0-----------------|---------------------|---------------------|
--------------------|---------------------|--3------------------|


-------------------|--------------------|--8------7--5----------|
--1----------------|--6--------8--------|--5------------8----6--|
--2----------------|--7--------7--------|--5-----------------5--|
--2----------------|--7--------6--------|--5-----------------7--|
--3----------------|-----------7--------|--0-----------------5--|
-------------------|--7-----------------|-----------------------|

[ Tab from: http://www.guitartabs.cc/tabs/b/bart_howard/fly_me_to_the_moon_tab.html ]
                                                                  
-----------5----8----|--7------5------------|--------------------|
--------8------------|--6---------8----6----|--5--------5--------|
---------------------|--7-------------------|--4--------3--------|
---------------------|--5-------------------|--5--------5--------|
---------------------|----------------------|--3--------3--------|
---------------------|----------------------|--------------------|

              
--5-------------------|-----------------5----|--4------------------|
--5------8--6----5----|---------5--6---------|--5------6--5--------|
--5-------------------|--7-------------------|--7--------------7--5|
--7-------------------|--7-------------------|---------------------|
--8-------------------|----------------------|---------------------|
----------------------|--7-------------------|--0------------------|
    
                                                            
---------------------|-----5------5--------|--5----8----7--------|
---------------------|--3~-----------------|--6---------6--------|
--------------6------|--5~-----------------|--5---------7--------|
--------------5------|--3~-----------------|--7---------5--------|
--0--------0---------|--5~-----------------|--5------------------|
---------------------|---------------------|---------------------|


                                                                 
---------------------|--------------------|---------------------|
--8------------------|--6-----------------|-------6----6--------|
--7------------------|--6------------4----|--5------------------|
--5------------------|--5-----------------|--3------------------|
--7------------------|--0-----------------|--5------------------|
-----------0----6----|--------------------|---------------------|


                                                                   
------------5----3----|--------------------|----------------------|
----------------------|--6----5------------|------------5----6----|
-------4--------------|-------4------------|-----7------7---------|
-------3--------------|-------5------------|-----7------6---------|
----------------------|-------3------------|------------7---------|
--3-------------------|--------------------|--7-------------------|


                                                                     
--8------7--5----------|-----------5----8----|--7------5----------|
--5------------8----6--|------8--------------|--6---------8----6--|
--5-----------------5--|---------------------|--7-----------------|
--5-----------------7--|---------------------|--5-----------------|
--0-----------------5--|---------------------|--------------------|
-----------------------|---------------------|--------------------|


                                                                   
--------------------|--5-------------------|-----------------5----|
--5--------5--------|--5------8--6----5----|---------5--6---------|
--4--------3--------|--5-------------------|--7-------------------|
--5--------5--------|--7-------------------|--7-------------------|
--3--------3--------|--8-------------------|----------------------|
--------------------|----------------------|--7-------------------|


                                                                    
--4--------------------|---------------------|-----5----5----------|
--5------6--5----------|---------------------|--3------------------|
--7--------------7--5--|--------------6------|--5------------------|
-----------------------|--------------5------|--3------------------|
-----------------------|--0--------0---------|--5------------------|
--0--------------------|---------------------|---------------------|


                                                               
-------8----7--------|-------------------|-----------8--------|
------------6--------|--5----------------|--6--------6--------|
------------7--------|--7----------------|--6--------6--------|
--0---------5--------|--6----------------|--5--------5--------|
---------------------|-------------------|--0--------0--------|
---------------------|--6----------------|--------------------|


                                                                    
--10------------------|--------------10--------|--8----------------|
--------10------------|------12----------------|--8----------------|
--------10------------|------10----------------|--7----------------|
--0-------------------|------9-----------------|--7----------------|
----------------------|--10--------------------|-------------------|
----------------------|------------------------|--8----------------|



                                                                  
--------------------|--5------------------|----------------------|
--6--------5--------|--7------------------|-----1------0----3----|
--7--------7--------|--5--5----5----------|-----2----------------|
--7--------6--------|--0------------------|-----3------3---------|
--------------------|---------------------|----------------------|
--7--------6--------|---------------------|--3-------------------|


                                                                   
--5------------------|----------------------|--5------------------|
--5------------------|-----1------0----3----|--5------------------|
--5--5----5----------|-----2----------------|--5--5----5----------|
--4------------------|-----3------3---------|--4------------------|
--5------------------|----------------------|--5------------------|
---------------------|--3-------------------|--5------------------|


                                                
----------------------|----------------3------||
-----1------0----3----|----------------3------||
-----2----------------|-----2--4--5----2------||
-----3------3---------|--5-------------2------||
----------------------|----------------3------||
--3-------------------|-----------------------||
Comments