Barney - I Love You Chords & Tabs

 

I Love You Chords & Tabs

Barney Chords & Tabs

Version: 1 Type: Tab

I Love You Tab

Barney - I Love You
Tuning: Standard

-------------------------------------------------------|
----5---5---5---5----7--5------------------------------|
------6-------6------------7--6--4--6--7---------------|
-------------------------------------------------------|
-------------------------------------------------------|
-------------------------------------------------------|
[ Tab from: http://www.guitartabs.cc/tabs/b/barney/i_love_you_tab.html ]
-------------------------------------------------------|
---------5-----------------------5---5-----------------|
----6--7---6--4---4-4------6--7--------6--4--7-6-4-----|
---------------------------------------------------7---|
-------------------------------------------------------|
-------------------------------------------------------|

have fun!

tabed by: kasparov_ksa@hotmail.com