Bargain Music - Time To Die Chords & Tabs

 

Time To Die Chords & Tabs

Bargain Music Chords & Tabs

Version: 1 Type: Tab 0 ratings
1 star 2 stars 3 stars 4 stars 5 stars
comments

Time To Die Tab

-------------------------------------------------------------------------------
			     Time To Die - Bargain Music
-------------------------------------------------------------------------------
Tabbed by:Matt(eroticsock)
Email:Juzcheknmail@aol.com

Tuning:Normal

Intro(rhythm, all palm muted)
e|----------------------------| 
B|----------------------------|
G|----------------------------|
D|--2-2---2-2---2-2---2-2-----|
A|--2-2---2-2---2-2---2-2-----|
E|--0-0---0-0---0-0---0-0-----|

Intro(lead)
e|----------------------------|
B|----------------------------|
G|----4---5---2--2--2h4-------|
D|----------------------------|
A|----------------------------|
E|----------------------------|
First 45 seconds is the intro riff so keep playing it.

Then...
e|---------------------------------------------------------------------------|
B|---------------------------------------------------------------------------|
G|---------------------------------------------------------------------------|
D|-----9--7------------------------------------------------------------------|
A|-----7--5---5--5--5/7------------------------------------------------------|
E|------------3--3--3/5------------------------------------------------------|

Then at  1:10
e|---------------------------------------------------------------------------|
B|---------------------------------------------------------------------------|
G|---------------------------------------------------------------------------|
D|---9--7--------------------------------------------------------------------|
A|---7--5---7---10--9--------------------------------------------------------|
E|----------5---7---7--------------------------------------------------------|
[ Tab from: http://www.guitartabs.cc/tabs/b/bargain_music/time_to_die_tab.html ]
After that you go into this riff
e|---------------------------------------------------------------------------|
B|--12-10-8-10-8-7-8-7-5-7-5-3-----------------------------------------------|
G|---------------------------------------------------------------------------|
D|---------------------------------------------------------------------------|
A|---------------------------------------------------------------------------|
E|---------------------------------------------------------------------------|
Then everything trips out for a few minuets
but when it comes back you do this
e|-------------------------------------------------------------------------------------------|
B|----------------------------------0-------0------------------------------------------------|
G|---4-4-4-4h5-5p2-2h4--------5p4p2---5p4p2---5p4p2p0----------------------------------------|
D|--------------------------------------------------------2b---2p0h2p0h2p0h4p0h4p0h5p0h5p0h5-|
A|-------------------------------------------------------------------------------------------|
E|-------------------------------------------------------------------------------------------|

After that do this. play each chord inbetween sentences 
e|---------------------------------------------------------------------------|
B|---------------------------------------------------------------------------|
G|---------------------------------------------------------------------------|
D|---------------------------------------------------------------------------|
A|--9---11---7---9-----------------------------------------------------------|
E|--7---9----5---7-----------------------------------------------------------|

Then just improvise in the Em key.

Then Do the intro again

Then...
e|---------------------------------------------------------------------------|
B|---------------------------------------------------------------------------|
G|---------------------------------------------------------------------------|
D|-----9--7------------------------------------------------------------------|
A|-----7--5---5--5--5/7------------------------------------------------------|
E|------------3--3--3/5------------------------------------------------------|

Thats it.
Comments