Barenaked Ladies - Yoko Ono Chords & Tabs

 

Yoko Ono Chords & Tabs

Barenaked Ladies Chords & Tabs

Version: 2 Type: Bass Tab 0 ratings
1 star 2 stars 3 stars 4 stars 5 stars
comments

Yoko Ono Bass Tab

  BTAB: Yoko Ono
Artist: Barenaked Ladies
Author: Rattman (jratt0@hotmail.com)

**Padrino's Bass Tab Exclusive!**

Some of the notes you can't play on a regular bass in this song because the
bass player uses a upright bass with a low string.

[ Tab from: http://www.guitartabs.cc/tabs/b/barenaked_ladies/yoko_ono_btab_ver_2.html ]
Main Riff:
G-------------------------
D-------------------------
A-------0---0-1---1-3---3-
E-1-1-1---0-----1-----3---

Stopping Parts in verse:
G---------
D---------
A---0-1-3-
E-1-------

"Oh no! Here we go..."
G-----------------------------------------
D-----------------------------------------
A-1-1--3-3---------0-0-1-1-3-3---------0~-
E----------1-1-0-0-------------1-1-0-0----

Taken from Padrino's Bass Tab Archive: http://members.xoom.com/jszalma/
Comments