Barenaked Ladies - Too Little Too Late Chords & Tabs

 

Too Little Too Late Chords & Tabs

Barenaked Ladies Chords & Tabs

Version: 2 Type: Tab 0 ratings
1 star 2 stars 3 stars 4 stars 5 stars
comments

Too Little Too Late Tab

Song-Too Little Too Late
Artist- Barenaked ladies
Album-Maroon 2000
Tabbed By-Smellslikefeet1

intro
|-4-h5-5-5--|-4-h5-5-5-4---|
|-5----5-5--|-5----5-5-5---|
|-4----4-4--|-4----4-4-4---|
|-----------|--------------|
|-----------|--------------|
|-----------|--------------|
[ Tab from: http://www.guitartabs.cc/tabs/b/barenaked_ladies/too_little_too_late_tab_ver_2.html ]
verse
|--------|--------|--------|---------|
|--------|--------|--------|---------|
|--------|--------|--------|---------|
|--------|--------|--------|---------|x3
|-7-7-7--|-7-7-7--|-7-7-7--|-7-7-7---|
|-5-5-5--|-5-5-5--|-5-5-5--|-5-5-5---|
pre chorus
|-----------------------------------------|
|-----------------------------------------|
|-----------------------------------------|
|-----------------------------------------|
|-7-7-7-7-11111111-7-7-7-7-9-9-9-9-9-9-9-9|
|-5-5-5-5--9-9-9-9-5-5-5-5-7-7-7-7-7-7-7-7|

chorus
|-----------------------------------------|
|-----------------------------------------|
|-----------------------------------------|
|-----------------------------------------|
|11-11-11-11--9-9-9-9--7-7-7-7------------|
|-9-9--9--9---7-7-7-7--5-5-5-5-4-2-0------|
Comments