Barenaked Ladies - Told You So Chords & Tabs

 

Barenaked Ladies Chords & Tabs

Version: 1 Type: Tab 0 ratings
1 star 2 stars 3 stars 4 stars 5 stars
comments

Told You So Tab

   
Told You So
Barenaked Ladies
Stunt (1998(

main riff:
--------------3-3----3-3-----3-3--------3-3---3----3---------------|
--------------3-3----3-3-----3-3--------3-3---3----3---------------|
--------------0-0----0-0-----0-0--------0-0---0----0---------------|
--0--2--2h3--------2------0------------------------x---------------|
-----------------------------------0h2--------3--3-3---------------|
-------------------------------------------------------------------|

chords used:

  G  G/F#   F6/9  C9  G/B  A7  Dsus/A
--3---3------1-----3---3----0----0----------|
--3---3------1-----3---3----2----3----------|
--0---0------0-----0---0----0----0----------|
--0---0------0-----2---0----2----4----------|
--x---x------x-----3---2----0----0----------|
--3---3------1------------------------------|


Verse (Insert main riff when needed):

G            G/F#      F6/9    G/B
I never jumped in and rescued you
       C9      G/B
But I wanted to
G           G/F#        F6/9    G/B
I didn't tell you which way to go
            C9          G/B
‘Cause I thought you'd know
[ Tab from: http://www.guitartabs.cc/tabs/b/barenaked_ladies/told_you_so_tab.html ]
You had a problem with your new-found wealth
Brought it on yourself
I never told I told you so
But I told you so

(Main Riff)
Have to let it go
It's time to let it go

      G     A7 Dsus/A
Now I can't believe
It took so long to leave
Perhaps one day I'll grieve
C9              Main Riff
Or I never will

I never told you I agreed with you
I don't think I do
I wasn't sure quite what the whole thing meant
But I'm glad you went

I never thought that it could be painless
But it is I guess
I had myself fooled into meeting you
Did I fool you too?

Have to let it go
It's time to let it go

Now I can't believe
Took so long to leave
Perhaps one day I'll grieve
Or I never will

F#             G
A viral infection
          D             A7
That can incubate for years
Caused by affection
Falling deep into arrears
No medication to procure
Makes me pure
There's no cure
I am sure

I never mentioned how I’ve prayed for you
Now I've paid for you
I never said that I would wait for you
It's too late for you

It's time to let it go
Now I can't believe
It took so long to leave
Perhaps one day I'll grieve
Or I never will
Or I never will

I never will
Oh I
Oh I
Oh I

I Never will
Never will
Comments