Barenaked Ladies - Take It Outside Chords & Tabs

 

Take It Outside Chords & Tabs

Barenaked Ladies Chords & Tabs

Version: 1 Type: Tab 0 ratings
1 star 2 stars 3 stars 4 stars 5 stars
comments

Take It Outside Tab

   
Intro:
e-----------0--0-----0--0--0---0--0--------0------0-----|
b---4\5-----5--4---2----0------0--0---0----0-----0-0-0--|
g----------------------------1----2---2\4-----4---------|
d-------------------------------------------------------|
a-------------------------------------------------------|
E-------------------------------------------------------|
[ Tab from: http://www.guitartabs.cc/tabs/b/barenaked_ladies/take_it_outside_tab.html ]
e--------0--0--0--0--0--0-----------0-------------------|
b---4\5--5--4--2--0-----0-------------0-----------------|
g-----------------------1---2--2\4----------------------|
d-------------------------------------------------------|
a-------------------------------------------------------|
E-------------------------------------------------------|

Verse:

F#m	E*	A	E		*before strumming each E chords, pluck top E-string
Oh I 		watch it ...

A	E	A	E
Closed eyes, pretend ...

This is a new song from eveuthing to everyone. ENJOY!

F#m	G#m	Asus	Bsus  x2
So I chose to ...

Chorus:

E	Bsus	C#m	Asus x3
Any other guy...

F#m	G#m	Bsus
But I'd rather...

Verse & Chorus 2 are same as first

Bridge:  C#m	Asus	E	Bsus x3 then A A/B C#m
Hardly know what...

Intro x4

Chorus x2, end on E
Comments