Barenaked Ladies - Pinch Me Chords & Tabs

 

Pinch Me Chords & Tabs

Barenaked Ladies Chords & Tabs

Version: 1 Type: Tab 0 ratings
1 star 2 stars 3 stars 4 stars 5 stars
comments

Pinch Me Tab

   
Name: Dan Gonko

Tabs: Barenaked Ladies
Pinch Me

All of the hammer-ons are very fast.  Ed improvs in the chords as well, 
which is why I labeled them above the tab.  You can throw in additional 
string picks in that chord to give a fuller sound.

Intro and Verses

     F              G            C         
e ---------------------------------------------------------------
B ------1-------------0--------------1---------------------------
G --------2-------------0--------------2-------------------------
D ----------------------------------------0-2-3~~2---------------
A -----------------------------2^3-------------------------------E 
--0^1----------1^3---------------------------------------------

Pre-Chorus
[ Tab from: http://www.guitartabs.cc/tabs/b/barenaked_ladies/pinch_me_tab.html ]
      D/F#               F     G
e -----------------------1--/--3---------------------------------
B -------3----3----------1--/--3---------------------------------
G ---------2--2----------2--/--4---------------------------------
D ------------0----------3--/--5---------------------------------
A ------------0----------3--/--5---------------------------------
E ---0^2------2--------0^1--/--3---------------------------------

Chorus

C      G      F      G

Bridge

Am     G      F      G

End Chord is a D/F#

I didn't do the solo because I'm not sure if I have the whole thing on 
my download.  I'm getting the cd tomorrow when it comes out and I'll 
make an attempt at it then.  

Comments are more than welcome!   Gonko1dr@cmich.edu
Comments