Barenaked Ladies - Pinch Me Chords & Tabs

 

Pinch Me Chords & Tabs

Barenaked Ladies Chords & Tabs

Version: 2 Type: Bass Tab 0 ratings
1 star 2 stars 3 stars 4 stars 5 stars
comments

Pinch Me Bass Tab

Song: Pinch Me
Artist: Barenaked Ladies
Album: Maroon
Tabbed by: Hoserchris (ctimpano@yahoo.com)

Intro/Verse           
D|----------------      
A|----3-------3--- 
E|1-3-----1-3----- 

  1&2&3&4&1&2&3&4&...

Prechorus "It's colder than it looks outside"
D|0--------------
A|---------------
E|--------1---3--
  1&2&3&4&1&2&3&4
[ Tab from: http://www.guitartabs.cc/tabs/b/barenaked_ladies/pinch_me_btab_ver_2.html ]
Chorus/Outro
D|--------3---0------------------
A|3---------------3--------------
E|----3---------------3-1/3------   rept 2x
  1&2&3&4&1&2&3&4&1&2&3&4&1&2&3&4

"Pinch me, pinch me, 'cause I'm still......" (Bridge)

A|-------------------0---------------0---------------0---
E|1--3----3--1----3-------3--1----3-------3--1----3-----3
  1&2&3&4&1&2&3&4&1&2&3&4&1&2&3&4&1&2&3&4&1&2&3&4&1&2&3&4

The timing on the bridge is probably a little off, but it
doesn't take a rocket scientist to play it right. Wait...
do rocket scientists play bass? Maybe...
Chris
Comments