Barenaked Ladies - Never Is Enough Chords & Tabs

 

Never Is Enough Chords & Tabs

Barenaked Ladies Chords & Tabs

Version: 2 Type: Bass Tab 0 ratings
1 star 2 stars 3 stars 4 stars 5 stars
comments

Never Is Enough Bass Tab

   
Never is Enough
Barenaked Ladies
Stunt
Tabbed by Jim Mumford

Well, its pretty close, I've seen 5 different versions, all sounding great, so this is
what I think sounds the best. As always, suggestions/comments at packman711@hotmail.com

Intro

G|--------------------------------0-------------------|
D|0-----0-----0---0----------4------------------------|
A|--------------------0-----------------0-------------|
E|-------------------------3--------------------------|

Riff 1

bm
G|-------------------------------------------------|
D|0--0---------------------------------------------|
A|-----------2--------0------------------------0?2-|
E|-----------------------------3-3---------0-------|

d
G|--------------------------------0------------------|
D|-----0---0-----------4-----------------------------|
A|------------------0-----------------0--------------|
E|-------------------------3-------------------------|

d
bm
bm
d
d
bm

chorus
G|--------------------------------------------------|
D|0----0---0-----0----------------------------------|
A|---------------------------2----------------------|
E|-----------------------------------3---3----------|


G|--------------------------------------------------|
D|--------------------------------------------------|
A|--0-----------------------------0-2---------------|
E|-----------------------0--------------------------|
[ Tab from: http://www.guitartabs.cc/tabs/b/barenaked_ladies/never_is_enough_btab_ver_2.html ]
G|--------------------------------------------------|
D|0----0---0-----0----------------------------------|
A|---------------------------2----------------------|
E|-----------------------------------3---3----------|


G|--------------------------------------------------|
D|--------------------------------------------------|
A|--0-----------------------------0-2---------------|
E|-----------------------0--------------------------|


riff 2
G|--4----------------------------------------------|
D|-------------------------------------------------|
A|--------0----------------------------------------|
E|-------------------0------1?---------------------|

G|--4----------------------------------------------|
D|-------------------------------------------------|
A|--------0----------------------------------------|
E|-------------------0------1?---------------------|

bridgex8
G|--0----------------------------------------------|
D|-------------------------------------------------|
A|--------0----------------------------------------|
E|-------------------------------------------------|
x3
G|-----------------------0------------------------|
D|--0---0--------------------------0--------------|
A------------0------------------------------------|
E|------------------------------------------------|

G|------------------------------------------------|
D|--0---0-----------------------------------------|
A--------------0   1------------------------------|
E|------------------------------------------------|

Riff 1 X 2 Chorus X 2 End on a D
Comments