Barenaked Ladies - Jane Chords & Tabs

 

Jane Chords & Tabs

Barenaked Ladies Chords & Tabs

Version: 1 Type: Tab 0 ratings
1 star 2 stars 3 stars 4 stars 5 stars
comments

Jane Tab

Okay, let's see if this works.  This is just the intro and the verses,
but it's perfect.

Jane - Barenaked Ladies

Capo on 2

Guitar 1:
[ Tab from: http://www.guitartabs.cc/tabs/b/barenaked_ladies/jane_tab.html ]
----0-----3---0---3-------3----------------------
3-----3---------------3-------3------------------
--0---------0-------0-------0--------------------
-------------------------------------------------
3-------2-------0-------2------------------------
-------------------------------------------------

Guitar 2:

-------------------------------------------------
3---3-3---3---3---3---3---3---3------------------
0---0-0---0---0---0---0---0---0------------------
2---2-0---0---2---2---0---0---0------------------
3---3-2---2---0---0---2---2---2------------------
-------------------------------------------------

That's it, pretty straightforward.
Comments