Barenaked Ladies - Hello City Chords & Tabs

 

Hello City Chords & Tabs

Barenaked Ladies Chords & Tabs

Version: 1 Type: Tab 0 ratings
1 star 2 stars 3 stars 4 stars 5 stars
comments

Hello City Tab

HELLO CITY - Barenaked Ladies

Album: Gordon
Tabbed By: Barry Miles
E-mail: shoebox_of_lies@hotmail.com


Intro (Guitar 1 arranged from piano, 2 arranged from saxophone)

Guitar 1

e|-5----------4---------5--------5--------5-------4-----------5----------5---|
B|-5----------5---------7--------6--------5-------5-----------7----------6---|
G|-6----------6---------7--------7--------6-------6-----------7----------7---|
D|-7----------6---------7--------7--------7-------6-----------7----------7---|
A|-7----------4---------5--------5--------7-------4-----------5----------5---|
E|-5--------------------------------------5----------------------------------|

Guitar 2
[ Tab from: http://www.guitartabs.cc/tabs/b/barenaked_ladies/hello_city_tab.html ]
e|---------------------------------------------------------------------------|
B|----5---7-5----------------------------------------------------------------|
G|------------6------------5\4--2--------------------------------------------|
D|----------------------------------4--2------7--7---2--4p2----7-7------2--3-|
A|----------------------------------------4-----------------5--------5-------|
E|---------------------------------------------------------------------------|

Verse/Chorus

e|-------5--5-----------4--4----------5--5----------5--5-|
B|-5-----5--5-----5-----5--5-----7----7--7-----6----6--6-|
G|-6-----6--6-----6-----6--6-----7----7--7-----7----7--7-|
D|-7-----7--7-----6-----6--6-----7----7--7-----7----7--7-|
A|-7-----7--7-----4--------------5-------------5---------|
E|-5-----------------------------------------------------|

    Hello       City,            You've found an enemy in

Bridge

e|------------------------------------------5-|
B|-7--7--7-7-5--5-5-5--5-7-7--7--7--7-5--5--5-|
G|-9--9--9-8-7--7-7-7--7-8-9--9--9--9-7--7--7-|
D|-9--9--9-8-7--7-7-7--7-8-9--9--9--9-7--7----|
A|-7--7--7-6-5--5--------6-7--7--7--7-5--5----|
E|--------------------------------------------|

e|--------------------------------------------|
B|-7--7--7-7-5--5-5-5------9---------7--------|
G|-9--9--9-8-7--7-7-7------9---------7--------|
D|-9--9--9-8-7--7-7-7------9---------7--------|
A|-7--7--7-6-5--5-5-5------7---------5--------|
E|--------------------------------------------|

That's mainly it. I plan on tabbing out the sax solo at the end for guitar, but that can be done later.
Comments